Reuben
Blamethrower
C# G# C# F#
note: this band just keeping getting heavier.

Intro:
------
------
------
-12b~-

Main Riff:
----------------------------------
----------------------------------
----------------------------------
-0--12-12-0-0--5-5-5-6-6-6-7-7-7--

Pre Chorus:
-----------------------------
-----------------------------
-----------------------------
-7-7-8-8-9-0--7-8-8-9-9--x0x-

Main Riff x 8

Pre Chours x 4

Chorus (No I dont, feel so ***ing good.)
--------------------------
--------------------------
--------------------------
-0-0-0--7-9-9--7-9-9--7-9- x4

-------------------
-------------------
-------------------
-3-3-3-3--5-5-6-7--

Main Riff x4

Breakdown
-------------------------
-------------------------
-------------------------
-0-0--0-0--0-0--0-0--0-0- x4

-----------------------------
-----------------------------
-----------------------------
-0-0--0-0--0-0--0-0--3-3-3-3-

--------------------
--------------------
--------------------
-0-0--0-0--0-0--0-0-

Pre chorus

chorus

Main Riff

end.
Show more