Artist- =Reuben=
Track name- Miffy in Auschwitz
Written by- Jamie Lenman
Tabbed by- nunchucks17

Bass Riff
e------------------------------
b-----------------------------
g--
d--
a-----5------------------5--3
d--0----6--0-4-5----0--------0-3-4


main riff
e------------------------------
b-----------------------------
g---------------------5------
d--0-5-6--0-2-3--0-5--5--0-2-3--------------
a--0-5-6--0-2-3--0-5--3--0-2-3--------------
d--0-5-6--0-2-3--0-5-----0-2-3--------------


e------------------------------
b-----------------------------
g------------7-7-7-7--------------
d--0--4--0---5-5-5-5------------------
a--0--4--0---3-3-3-3------------------
d--0--4--0------------------------
before verse

e------------------------------
b-----------------------------
g------7-7-7-7----2---------------------
d--4--7-7-7-7--0--2---------------------
a--4--5-5-5-5--0--0---------------------
d--4--5-5-5-5--0--0---------------------
verse
e------------------------------
b-----------------------------
g---14--------------------------
d----x--------------------------
a---12---------------------------
d------------------------------
at the end of each verse

e------------------------------
b-----------------------------
g------------7-7-7-7--------------
d--0--4--0---5-5-5-5------------------
a--0--4--0---3-3-3-3------------------
d--0--4--0------------------------


e------------------------------
b-----------------------------
g---------------------5------
d--0-5-6--0-2-3--0-5--5--0-2-3--------------
a--0-5-6--0-2-3--0-5--3--0-2-3--------------
d--0-5-6--0-2-3--0-5-----0-2-3--------------
main riff

e------------------------------
b-----------------------------
g------------7-7-7-7--------------
d--0--4--0---5-5-5-5---0--4--0---12-12-12-12-----
a--0--4--0---3-3-3-3---0--4--0---10-10-10-10-----
d--0--4--0-------------0--4--0---10-10-10-10
Chord Variation

e-------------------------------------------------------------------------
b------------------------------------------------------------------------
g--7--------6-------------------5-----------5----------------------------
d-----7--------7------------5------5--------------------------8----------8
a--------5---------------3--------------3-------------------8-----8------
d-------------------------------------------------------7/8-----------8-----

then

e------------------------------
b-----------------------------
g--5-5-5-5-5-5-5-5
d--5-5-5-5-5-5-5-5--------7-8-8-8-8-8-8-8-
a--3-3-3-3-3-3-3-3--------7-8-8-8-8-8-8-8-
d-------------------------7/8-8-8-8-8-8-8-8-
palm muted

then

e------------------------------
b-----------------------------
g-------------------
d--0-2-3--0-3-5
a--0-2-3--0-3-5
d--0-2-3--0-3-5

then
e------------------------------
b-----------------------------
g-----
d--0--5--8--0--1--3------------4
a--0--5--8--0--1--3------------4
d--0--5--8--0--1--3------------4

or play this note very fast

e------------------------------
b-----------------------------
g--14-14-14-14-14-14-
d----------------------------
a-----------------------------
d-----------------------------

Any comment or corrections would be good.enjoy
Show more