Band:Reuben
Song Miffy In Aushwitz
Album: Scared Of Police Single
Tuning:Drop D

Intro
E|------|
B|------|
G|------|
D|-0-6--|
A|-0-6--|
D|-0-6--|

Main Riff
E|---------------------------------|---------------------------------|
B|---------------------------------|---------------------------------|
G|-----7---------------7-5---------|-----7---------------7-5---------|
D|-0---7-6---0-2-3-0---7-5---0-3-4-|-0---7-6---0-2-3-0---7-5---0-6---| x2
A|-0---5-6---0-2-3-0---5-3---0-3-4-|-0---5-6---0-2-3-0---5-3---0-6---|
D|-0-----6---0-2-3-0---------0-3-4-|-0-----6---0-2-3-0---------0-6---|

Chorus
E|-----------------|
B|-----------------|
G|-----------------|
D|-0---0-12-121212-| x8
A|-0---0-10-101010-|
D|-0---0-10-101010-|

verse
e|-------------------------------|-------------------------------|
B|-------------------------------|-------------------------------|
G|-------------------------------|-------------------------------|
D|-6---6-7---7-7-7-7-----7---7-7-|-6---6-7---7-7-7-7-----7---7-7-|
A|-4---4-5---5-5-5-0-----0---0-0-|-4---4-5---5-5-5-0-----0---0-0-|
D|-4---4-5---5-5-5-0-----0---0-0-|-4---4-5---5-5-5-0-----0---0-0-|

e|-------------------------------|-------------------------------|
B|-------------------------------|-------------------------------|
G|-------------------------------|-6---6-7---7-7-7---------------|
D|-6---6-7---7-7-7-7-----7---7-7-|-4---4-5---5-5-5-7-----7---7-7-|
A|-4---4-5---5-5-5-0-----0---0-0-|-4---4-5---5-5-5-0-----0---0-0-|
D|-4---4-5---5-5-5-0-----0---0-0-|-4---4-5---5-5-5-0-----0---0-0-|

Interlude
e|-------------------------------------------------------------------|
B|-----3-2---3-2-----------------------------------------------------|
G|---------------2-------2-----2---------5-----5---------------------|
D|-0-----------------0-------0---0-----5-----5---5-------0-------0---|
A|-0---------------------------------3-----------------0-------0-----|
D|-0-------------------------------3---------------7-------7-------7-|

Outro
e|--------------------------------|
B|--------------------------------|
G|--------------------------------|
D|-5-5-5-5-5-5-5-5-8-8-8-8-8-8-/-|
A|-5-5-5-5-5-5-5-5-8-8-8-8-8-8-/-|
D|-5-5-5-5-5-5-5-5-8-8-8-8-8-8-/-|(palm muted)
   x x x x x x x x x x x x x x 

Nice N Heavy 
e|-----------------|
B|-----------------|
G|-----------------|
D|-0-0-2-3---1-3-4-| x4
A|-0-0-2-3---1-3-4-|
D|-0-0-2-3---1-3-4-|

e|-----------------|-----------------|-----------------|-------------------|
B|-----------------|-----------------|-----------------|-------------------|
G|-----7-----------|-----7-----------|-----7-----------|-----7-------------|
D|-0---7-8---0-2-3-|-0---7-8---0-2-3-|-0---7-8---0-2-3-|-0---7-8---0-2-3-0-|
A|-0---5-8---0-2-3-|-0---5-8---0-2-3-|-0---5-8---0-2-3-|-0---5-8---0-2-3-0-|
D|-0-----8---0-2-3-|-0-----8---0-2-3-|-0-----8---0-2-3-|-0-----8---0-2-3-0-|
Show more