Song: Butterfly
Band: Reveille	       Tuning: Dopped D
Album: Laced
Tabbed by: Mike Karapetian
Found at: http://www.aad1.com/reveille

Intro:
E------------------------------------------
B------------------------------------------
G------------------------------------------
D-0h22222-0--0h33333-x-6-------------------
A-0h22222-0--0h33333-x-6-------------------
D-0h22222-0--0h33333-x-6-------------------

Rest of band comes in:
E-----------------------------------------
B-----------------------------------------
G-----------------------------------------
D-0h22222-00--33333-00--22222-00--333-x-6
A-0h22222-00--33333-00--22222-00--333-x-6
D-0h22222-00--33333-00--22222-00--333-x-6

Verse and Chorus(palm muted during verse)
E------------------------------------------------
B------------------------------------------------
G------------------------------------------------
D-6--2-3--22--5-3----6--2-3--22--5---------------
A-6--2-3--22--5-3----6--2-3--22--5---------------
D-6--2-3--22--5-3----6--2-3--22--5---------------

Bridge(Drew goes nuts here)
E------------------------------------------------------------
B------------------------------------------------------------
G------------------------------------------------------------
D----5h6p5-0---5h6p5-0----2h3p2-0---5h6p5-0--5h6p5-0--x--3
A----5h6p5-0---5h6p5-0----2h3p2-0---5h6p5-0--5h6p5-0--x--3
D----5h6p5-0---5h6p5-0----2h3p2-0---5h6p5-0--5h6p5-0--x--3

Slow down part:( this part has a strange rhythm)
E------------------------------------------------------
B------------------------------------------------------
G------------------------------------------------------
D--0--000---7-777--3-33--6-666---2-222---5--55---------
A--0--000---7-777--3-33--6-666---2-222---5--55---------
D--0--000---7-777--3-33--6-666---2-222---5--55---------

Outro:
E----------------------------------------------------------------
B----------------------------------------------------------------
G----------------------------------------------------------------
D----0--00---6-00-5-00---6--8-10----0--00---6-00-5-00--6-5-3-0
A----0--00---6-00-5-00---6--8-10----0--00---6-00-5-00--6-5-3-0
D----0--00---6-00-5-00---6--8-10----0--00---6-00-5-00--6-5-3-0

^Palm muted
I left out some little stuff, but these are the main riffs that carry this
awesome song.
Show more