Author/Artist: Reveille
Title: Butterfly
Album: Laced
Email: john1645@msu.edu
By: Alpha-Q
Tuning: Down half step, Drop-D (Db,Ab,Db,Gb,bb,eb) (Low to High)


<> natural harmonics
p  pull off
h  hammer on
b  bend
/  slide up
  slide down
... play until you think it is time to move on.
PM  palm mute


Intro:
|-------------------------|
|-------------------------|
|-------------------------|
|-0h22222-0--0h33333-x-6--|
|-0h22222-0--0h33333-x-6--|
|-0h22222-0--0h33333-x-6--|


|-----------------------------------------|
|-----------------------------------------|
|-----------------------------------------|
|-0h22222-00--33333-00--22222-00--333-x-6-|
|-0h22222-00--33333-00--22222-00--333-x-6-|
|-0h22222-00--33333-00--22222-00--333-x-6-|

ending part...
|--------------------------------------------------------------------------|
|--------------------------------------------------------------------------|
|--------------------------------------------------------------------------|
|--------------------------------------------------------------------------|
|--------------------------------------------------------------------------|
|-0-11-12-0-11-12-0-11-12-0-11-12-0-11-12-0-11-12-0-11-12-0-12-11-12(6p0)-|

Verse
|----------------------------------|
|----------------------------------|
|----------------------------------|
|----------------------------------|
|-6--2-3--00--5-3----6--2-3--00--5-|
|-6--2-3--00--5-3----6--2-3--00--5-|
  .  . .  ..  . .    .  . .  ..  .

(this part is played first time through only)
----------------------------------
----------------------------------
----------------------------------
---------------------33-----------
-6--2-3-00--5-3--6-2-33-----------
-6--2-3-00--5-3--6-2-33-----------
 .  . . ..  . .  . . 

Chorus

|----------------------------------|
|----------------------------------|
|----------------------------------|
|-6--2-3--00--3-3----6--2-3--00--5-|
|-6--2-3--00--3-3----6--2-3--00--5-|
|-6--2-3--00--3-3----6--2-3--00--5-|

Break:
(I doubt any of this part is accurate)
GTR 1
----------------------------------
----------------------------------
-xx-------------------------------
-xx-------------------------------
-xx-<55-5--555-5-55555>-----------
-xx-------------------------------

GTR 2
(x*= hit random harmonics on the up-picks)
--------------------------
--------------------------
-xxxx-xxxx-x*--x*---------
-xxxx-xxxx-x*--x*---------
-xxxx-xxxx-x*--x*---------
-xxxx-xxxx-x*--x*--12-12--

both end with
--------
--------
--------
--6-2-3-
--6-2-3-
--6-2-3-


2nd Verse one guitar plays something like...
|----------------------------------------------------------|
|--8--8-8h9--9-9p8--8-8h9--9-9p8--8-8h9--9-9p8--8-8h9-9b~--|
|----------------------------------------------------------|
|----------------------------------------------------------|
|----------------------------------------------------------|
|----------------------------------------------------------|

GTR 1&2
|-----------------------------------------------
|-----------------------------------------------
|-----------------------------------------------
|-----------------------------------------------
|-----------------------------------------------
|-6p0-0-300-200-0000-50-30-6p0-0-300-200-000-5b-
      . ... ... .... .. ..     . ... ... ...

----------------------------------|
----------------------------------|
----------------------------------|
--------------------------6-2-3---|
--------------------------6-2-3---|
-6p0-0-300-200-0000-50-30-6-2-3---|
     . ... ... .... .. ..

Bridge
|------------------------------------------|
|------------------------------------------|
|------------------------------------------|
|--5650-0--5650--0--2320---565-0--565020-3-|
|--5650-0--5650--0--2320---565-0--565020-3-|
|--5650-0--5650--0--2320---565-0--565020-3-|


With effect (flanger probably)
|-11-------11--|
|----10~---10--|
|--------------|
|--------------|
|--------------|
|--------------|

7x palm muted, then 1x no palm mute
|--------------------------------------------|
|--------------------------------------------|
|-------14------14------14-------14----------|
|--0-13----0-13----0-13-----0-13----14-13-12-|
|--------------------------------------------|
|--------------------------------------------|

(Turn off flanger)
|----------------------------------------------|
|----------------------------------------------|
|----------------------------------------------|
|--0--000---7-777--3-33--6-666---2-222---5--55-|
|--0--000---7-777--3-33--6-666---2-222---5--55-|
|--0--000---7-777--3-33--6-666---2-222---5--55-|

Outro:
|-----------------------------------------------------------|---|
|-----------------------------------------------------------|---|
|-----------------------------------------------------------|---|
|-0--00---6-00-5-00---6--8-10----0--00---6-00-5-00--6-5-3-0-|-0-|
|-0--00---6-00-5-00---6--8-10----0--00---6-00-5-00--6-5-3-0-|-0-|
|-0--00---6-00-5-00---6--8-10----0--00---6-00-5-00--6-5-3-0-|-0-|
pm 1st and last time only                              . . . .


E-mail me any corrections or comments
Show more