Band: Reveille
Song: Butterfly
Tuning: Standard (EADG)
Tabber: M3TaLbASsIST

*listen to song for timing


Intro
      
|----------------------------------------------------------|
|----------------------------------------------------------|
|----------------------------------------------------------|
|-0--2-2-2-2--0-0--3-3-3-3--0-0--2-2-2-2--0-0--3-3-3--6----|


Verse/Chorus

|-----------------------------------------------------------|
|-----------------------------------------------------------|
|-----------------------------------------------------------|
|-6-2-3-2-2-5-3--6-2-3-2-2-5--6-2-3-2-2-5-3--6-2-3-2-2-5----|


Brdge 1

|---------------------------------------------------------------|
|---------------------------------------------------------------|
|---------------------------------------------------------------|
|-5h6-5-0--0-0-0--5h6-5-0--0-2h3-2--5h6-5-0--0-0-0--5-6-5-0--3--|


|----------------------------------------------|
|----------------------------------------------|
|----------------------------------------------|
|-5-6-5-0--0-0-0--5-6-5-0--2h3----6---2---3----|


Bridge 2

|-----------------------------------------|
|-----------------------------------------|
|-----------------------------------------|
|-0-0-0--7-7-7--3-3--6-6-6--2-2-2--3-5----|


Outro

|----------------------------------------------------|
|----------------------------------------------------|
|----------------------------------------------------|
|-0-0-0-3-0-2-0-3--6-8-10--0-0-0-3-0-2-0-3--6-5-3----|



This is a pretty easy and fun song once you get the timing down. I might have a few notes off here and there, but you
get the point.  Thanx.. have fun


******************************************************
Generated using Power Tab Editor by Brad Larsen - 
http://powertab.guitarnetwork.org 
******************************************************
Show more