reveille
song:unborn
album:bleed the sky
drop d tuning

intro
G----------
D-----------
A-----------
D-0~------x4

G----------------------------------------------------------------------
D----------------------------------------------------------------------
A-5---------------------------------------------------------------------
D---77-6-3-4-0--------------------------------------------------x4

G----------------------------------------------------------------------
D----------------------------------------------------------------------
A----------------------------------------------------------------------
D-00-0-0--00-0-0--00-0-0-1-2-0-3~------------------------x4

G----------------------------------------------------------------------
D----------------------------------------------------------------------
A-5--------------------------------------------------------------------
D---77-6-3-4-0------------------------------------------------x3

G----------------------------------------------------------------------
D----------------------------------------------------------------------
A----------------------------------------------------------------------
D-2-3-0~-------------------------------------------------------------

verse
G----------------------------------------------------------------------
D----------------------------------------------------------------------
A-5---------------------------------------------------------------------
D---77-6-3-4-0--------------------------------------------------x12

into this again
G----------------------------------------------------------
D--------------------------------------------------------
A---------------------------------------------------------
D-00-0-0-00-0-0-00-0-0-1-2-0-3~--------------x2

G----------------------------------------------------------------------
D----------------------------------------------------------------------
A-5---------------------------------------------------------------------
D---77-6-3-4-0~-------------------------------------------------x3

G----------------------------------------------------------------------
D----------------------------------------------------------------------
A----------------------------------------------------------------------
D-2-3-0~-------------------------------------------------------------

G----------------------------------------------------------------------
D----------------------------------------------------------------------
A-5---------------------------------------------------------------------
D---77-6-3-4-0---------------------------------------------------x3

G----------------------------------------------------------------------
D----------------------------------------------------------------------
A----------------------------------------------------------------------
D-2-3-0~------------------------------------------------------------

back into the verse x 12

into this again
G----------------------------------------------------------------------
D----------------------------------------------------------------------
A-5---------------------------------------------------------------------
D---77-6-3-4-0~-------------------------------------------------x3

G----------------------------------------------------------------------
D----------------------------------------------------------------------
A----------------------------------------------------------------------
D-2-3-0~-------------------------------------------------------------

G----------------------------------------------------------------------
D----------------------------------------------------------------------
A-5---------------------------------------------------------------------
D---77-6-3-4-0~-------------------------------------------------x3

G----------------------------------------------------------------------
D----------------------------------------------------------------------
A----------------------------------------------------------------------
D-2-3-0-4-h5h5h5h5--------------------------------------------x8
pause

then
G------------------------------------
D-----------------------------------
A-------------------------------------
D-1-0-0-1-0-0-1-0-0-0-0-0---x10

last time
G----------------------------------------------------------------------
D----------------------------------------------------------------------
A-5---------------------------------------------------------------------
D---77-6-3-4-0~-------------------------------------------------x3

G----------------------------------------------------------------------
D----------------------------------------------------------------------
A----------------------------------------------------------------------
D-2-3-0~-------------------------------------------------------------

G----------------------------------------------------------------------
D----------------------------------------------------------------------
A-5---------------------------------------------------------------------
D---77-6-3-4-0~-------------------------------------------------x3

G----------------------------------------------------------------------
D----------------------------------------------------------------------
A----------------------------------------------------------------------
D-2-3-0-4-h5h5h5h5--------------------------------------------x7

G----------------------------------------------------------------------
D----------------------------------------------------------------------
A----------------------------------------------------------------------
D-2-3-0~-------------------------------------------------------------
please rate this tab
Show more