Song:  Untied
Band:  Reveille	       Tuning: Drop D Tuning, Half A Step Down 
Album: Laced
Tabbed by: Hard Rock Universe's Monster Riff
http://music.acmecity.com/metal/399/riff.html
Found at: http://www.aad1.com/reveille


Intro

C#-|--0-3-5-3-5-x-x-x-0-3-5-3-5-0-
G#-|--0-3-5-3-5-x-x-x-0-3-5-3-5-0-
C#-|--0-3-5-3-5-x-x-x-0-3-5-3-5-0-
F#-|------------------------------
A#-|------------------------------
D#-|------------------------------

C#-|--0-3-5-3-5-x-x-x-0-6-5-3-5-3-
G#-|--0-3-5-3-5-x-x-x-0-6-5-3-5-3-
C#-|--0-3-5-3-5-x-x-x-0-6-5-3-5-3-
F#-|------------------------------
A#-|------------------------------
D#-|------------------------------
Show more