• Song:

    Smell Good

  • Artist:

    Robbie Williams

Intro
E|-------------------------------------------------------------------------|
B|-------------------------------------------------------------------------|
G|-------------------------------------------------------------------------|
d|-------------------------------------------------------------------------|
A|-------5-----5/8---5/8---5/8---5-------0---3-5---5/10---8---5---0-5------|
D|-0---------0-----------------------0----------------------------------0--|

---------------------------------------------------------------------------|
---------------------------------------------------------------------------|
----7-----------------------------------------7----------------------------|
--7---7\----------------------0---0-------0--------------------------------|
----------0-5/8---5/8---5/8-----3---5/8-----------0-3---5---8---5-8---5----|
---------------------------------------------------------------------------|

---------------------------------------------------------------------------|
----------------------------------------------------------------10-----8---|
--7-------------------------------------------------------------(b9)-----7---|
--7-------------------------0-------5---5\--0--/5--/6--/7----/7-7---/5-5---|
------0---5/8---5/8---5/8--------------------------------------------------|
--------------------------------0------------------------------------------|

C
I Like too touch myself
G
I Like to dance with elves
C
I wanna eat a turd
E
Dont come near me if ur a nird

D
I smell, i smell, i smell......
Am
I smell
Show more