• Song:

    Together

  • Artist:

    Robbie Williams

intro:
E|------------------------------------------------------------------------
A|------------------------------------------------------------------------
D|-2-----2-----2-----5-----5-----5-----2-----2-----2-----5-----5-----5----
G|--2---2-2---2-2-----5---5-5---5-5-----2---2-2---2-2-----5---5-5---5-5---
B|---1-1---1-1---1-1---4-4---4-4---4-4---1-1---1-1---1-1---4-4---4-4---4-4
E|----3-----3-----3-----6-----6-----6-----3-----3-----3-----6-----6-----6-
verse 1:(like the intro)
E|------------------------------------------------------------------------
A|------------------------------------------------------------------------
D|-2-----2-----2-----5-----5-----5-----2-----2-----2-----5-----5-----5----
G|--2---2-2---2-2-----5---5-5---5-5-----2---2-2---2-2-----5---5-5---5-5---
B|---1-1---1-1---1-1---4-4---4-4---4-4---1-1---1-1---1-1---4-4---4-4---4-4
E|----3-----3-----3-----6-----6-----6-----3-----3-----3-----6-----6-----6-
chorus:
E|------------------------------------------------------------------------
A|------------------------------------------------------------------------
D|------------------------------------------------------------------------
G|-7---7---7---7---7---7---7---7---7---7---7---7---7---7---7---7---7---7--
B|--8-8-8-8-8-8-8-8-8-8-8-8-8-8-8-8-8-8-8-8-8-8-8-8-8-8-8-8-8-8-8-8-8-8-8-
E|---6---6---6---6---6---(b9)--(b9)--(b9)--(b9)--(b9)--6---6---6---6---6---(b9)--(b9)--9
verse 2:(like intro)
E|------------------------------------------------------------------------
A|------------------------------------------------------------------------
D|-2-----2-----2-----5-----5-----5-----2-----2-----2-----5-----5-----5----
G|--2---2-2---2-2---2-2-----5---5-5-----2---2-2---2-2-----5---5-5---5-5---
B|---1-1---1-1---1-1---4-4---4-4---4-4---1-1---1-1---1-1---4-4---4-4---4-4
E|----3-----3-----3-----6-----6-----6-----1-----1-----1-----6-----6-----6-
outro:(electric guitar)2 times
    F7      G     Dm    Am7
I swear! I won't let you go!
    F7      G     Dm    Am7
I swear! I won't anymore!
    F7      G     Dm    Am7
NooooOO! Will be together!    
    F7      G     Dm    Am7
I swear! I'll be bether!
    F7      G     Dm    Am7
I just want you and me back together!
Show more