• Song:

    It's Only Us

  • Artist:

    Robbie Willians

Tom: E5

Intro:  E5
   

   VERSE 1:
   --------

   E5                       G#5
   And they want us to grow up
   F#5                           A5
      But we don't want to get a job
   E5                     B5
     We all need a decent brock
              F#5         B5 [stop]
   Where it's all kicking off
    
   CHORUS: [see tab below for lead guitar]
   -------

             A                  C         D9 <-very short chord
   Baby it's alright, baby it's alright
   E                           E7
     You don't need to cause a fuzz
             A                  C        
   Baby it's alright, baby it's alright
             E2  E7M
   It's only us
   
   
   [Here's the tab for the lead guitar
    in the chorus:]
   
   CHORUS-TAB:
              A                C               Dsus2
   E | ----------------------------------------------
   B | ----------------------------------------------
   G | ----------------------------------------------
   D | ------2--4--2---------2---5--4--2---3---2--0--
   A | --2h4-------------2h4-------------------------
   E | ----------------------------------------------
    
       E               E7
   E----------------------------------
   B----------------------------------
   G-------1-1-2-1--------------------
   D---------------4-2-0--------------
   A----------------------------------
   E----------------------------------
   
             A                C
   E----------------------------------------------
   B----------------------------------------------
   G----------------------------------------------
   D------2--4--2---------2---5--4--2---3---2--0--
   A--2h4-------------2h4-------------------------
   E----------------------------------------------
   
        E2            Emaj7
   E--------------------------- | 
   B----9-------------9-------- | 
   G----9-------------8-------- | 
   D----9-------------9-------- | 
   A----7-------------7-------- | 
   E--------------------------- | 
   
   
   
   VERSE 2:
   --------
   E                             G#m
     We just stopped the cheaper thrills
   F#m                           A9
      Since the price went up on pills
   E                               B
    From Stoke-On-Trent to Beverly Hills
                F#m         B
   We know it's all kicking off
    
   CHORUS: [play with CHORUS-TAB]
   -------

             A                  C         D9 <-very short chord
   Baby it's alright, baby it's alright
   E                           E7
     You don't need to cause a fuzz
             A                  C        
   Baby it's alright, baby it's alright
             E2  E7M
   It's only us
             Asus4   A2
   It's only us

   SOLO:
   -----
   I haven't tabbed the solo, make up

   your own. Here are the chords that

   go with it:
   

   E    G#m    F#m    A9    E    B
   
                F#m         B
   We know it's all kicking off
   
   CHORUS: [play with CHORUS-TAB]
   -------

             A                  C         D9 <-very short chord
   Baby it's alright, baby it's alright
   E                           E7
     You don't need to cause a fuzz
             A                  C        
   Baby it's alright, baby it's alright
             E2  E7M
   It's only us
             Asus4   A2
   It's only us
   
   OUTRO:
   ------

   E     B     Asus4     C

   E     B     Asus4     C
   
             E     Bb
   It's only us
Show more