Rufio
Save The World
Perhaps I Suppose
2001 Militia Records
Submitted by: paramore_fans@yahoo.com

Key: E

Tuning: Standard EADGBe

Chords used:
C#m -  x46654
A -    x02220
E -    022100 or 079900
B -    x24442
F#m -  244222
G#m -  466444
B/Eb - x698xx


Intro: C#m--A-E-B/Eb x3, C#m--E-G#m, C#m--E-B/Eb x2


Verse 1:
A (x02220@1)                  B (x2444x@1) you pull me by the arm
                  C#mtell (x13321@4)me what to believe
            Byou (x2444x@1)tell me there
        Ais (x02220@1)only one way
        B (x2444x@1)Aone (x02220@1)way to see
                   Bwhatever (x2444x@1)faith you choose
               C#mmay (x13321@4)not be for me
        B (x2444x@1)  Ahow (x02220@1)can i be saved
while being forced
B (x2444x@1)  A (x02220@1)     Bto (x2444x@1)believe believe


Chorus:
E (022100@1) let's save the
A (x02220@1)          C#mworld (x13321@4)one by one
                 Awell (x02220@1)make them believe
   B (x2444x@1)          Econform (022100@1)if they must
                   Adon't (x02220@1)question the thought
                       C#mit's (x13321@4)whats always been told
                  Awe'll (x02220@1)make them believe
     Blets (x2444x@1)save the world


Post Chorus: C#m--A-E-B/Eb, C#m--E-G#m


Verse 2:
C#m (x13321@4)         Aso (x02220@1)spread the word
    G#m (133111@4)           Band (x2444x@1)tell me of good news
C#m (x13321@4)         Ethat (022100@1)if i act right
A (x02220@1)           Bi (x2444x@1)can be like you
C#m (x13321@4) well to live is to learn
          B (x2444x@1)     C#mand (x13321@4)think for yourself
                 Aand (x02220@1)i'll do just that
        Bi (x2444x@1)don't need your help


(Repeat Verse 1 and Chorus)


Interlude: C#m--E--B--A-B x4, A, Bass line

Guitar 2:
   C#m (x13321@4) E (022100@1) B (x2444x@1)  A (x02220@1)   Be|-----|---|---|-5-4-|------| (x2444x@1)B|-----|---|-5-|-----|------|
G|-6---|-9-|---|-----|------|
D|-6---|-9-|---|-----|-idle-|
A|-4---|-7-|---|-----|------|
E|-----|-0-|---|-----|------|

    C#m (x13321@4)    E (022100@1)     B (x2444x@1)     A (x02220@1)    Be|-5-4-0-|-5-4-0-|-7-5-4-|-7-5-4-|-5-4-0-| (x2444x@1)B|-------|-------|-------|-------|-------|
G|-------|-------|-------|-------|-------|
D|-------|-------|-------|-------|-------|
A|-------|-------|-------|-------|-------|
E|-------|-------|-------|-------|-------|

    C#m (x13321@4)   E (022100@1)       B (x2444x@1)        A (x02220@1)       Be|-5-4-0-|-5-4-|-7-5-4-5-4-0-|-7-5-4-|-5-4-0-5-4-0-| (x2444x@1)B|-------|-----|-------------|-------|--very-fast--|
G|-------|-----|-------------|-------|-------------|
D|-------|-----|-------------|-------|-------------|
A|-------|-----|-------------|-------|-------------|
E|-------|-----|-------------|-------|-------------|

    C#m (x13321@4)   E (022100@1)    B (x2444x@1)     A (x02220@1)    B (x2444x@1)    Ae|-5-4-0-|-5-4-|-7-5-4-|-7-5-4-|-5-4-0-|-5-| (x02220@1)B|-------|-----|-------|-------|-------|---|
G|-------|-----|-------|-------|-------|---|
D|-------|-----|-------|-------|-------|---|
A|-------|-----|-------|-------|-------|---|
E|-------|-----|-------|-------|-------|---|


Bass Line: Very fast!!!
G|---------------|
D|-6---6---9-7-6-|
A|---7---7-------|
E|---------------|


(Repeat Chorus)


Outro: E--A--C#m--A-B x2, E(hold)

Show more