-----------------------------------------------------------------------
	Walk Don't Run - Rufio
-----------------------------------------------------------------------
Tabbed by: Richie Crowe
Email: unrealsports2000@yahoo.com

Tuning: Standard

This is only my 2nd tab so bare with me.

| /  slide up
| \  slide down
| h  hammer-on
| p  pull-off
| ~  let it ring

|Strumming Pattern:

|d= Down 
|u= Up


Guitar 1
(Play only once)
e|-----------------------------------------------------------------------------|
B|-----------------------------------------------------------------------------|
G|-------------------------------666-777777777-666-777777777-------------------|
D|-777-999999999-777-999999999-------------------------------------------------|
A|-------------------------------444-555555555-444-555555555-------------------|
E|-555-777777777-555-777777777-------------------------------------------------|
   dud uudduddud



Guitar 1
(Guitar 1 and 2 Play together starting here for the whole song)
e|-----------------------------------------------------------------------------|
B|-----------------------------------------------------------------------------|
G|-------------------------------666-777777777-666-777777777-------------------|
D|-777-999999999-777-999999999-------------------------------------------------|
A|-------------------------------444-555555555-444-555555555-------------------|
E|-555-777777777-555-777777777-----------------------------------------------x3|
   Part A (x02220@1)  I see the sand fall  hand     A subtle picture, quiet reminder
   We're staring  hour glass    When will it run out? When will we run out?
   We've castles sand so long   So temporary, I watch them tumble down

   Part B (x2444x@1)  Surround ourselves  parts      It give us comfort, comfort in numbers
   These monuments will always    Our lonely temples, lean too we'll all fall
   Try to appreciate slow it down life's so  we lay our brother's down
Guitar 2
e|----------------------------------------1110---------------------------------|
B|-7h8p7/10----------------------7h8p7-10?7 7 -7h8p7-10------------------------|
G|-----------------------------------------------------------------------------|
D|-----------------------------------------------------------------------------|
A|-----------------------------------------------------------------------------|
E|---------------------------------------------------------------------------x3|


Guitar 1
e|-----------------------------------------------------------------------------|
B|-----------------------------------------------------------------------------|
G|-----------------------------------------------------------------------------|
D|-555555-555555-555-777-777-555-----------------------------------------------|
A|-----------------------------------------------------------------------------|
E|-333333-333333-333-555-555-333-----------------------------------------------|
   Duduud duduud dud uud dud uud

   It's time to let it go             turn back the hand to the beginning

Guitar 2
e|-----------------------------------------------------------------------------|
B|-2h3p2-5p3p2-5p3p2-5p3p2---2h3p2-5p3p2-5p3p2-5p3p2------3~~~~~2~~~~~3~~------|
G|------------------------4-------------------------4-----2~~~~~2~~~~~4~~------|
D|-----------------------------------------------------------------------------|
A|-----------------------------------------------------------------------------|
E|-----------------------------------------------------------------------------|
                                                          d (xx0231@1)    d (xx0231@1)   d (xx0231@1)Guitar 1
e|-----------------------------------------------------------------------------|
B|-----------------------------------------------------------------------------|
G|--------------------------------7-9-11-6-7-9-7-4-----------------------------|
D|-555555-555555-555-777-777-555-----------------------------------------------|
A|--------------------------------5-7-9 -4-5-7-5-2-----------------------------|
E|-333333-333333-333-555-555-333-----------------------------------------------|
   Duduud duduud dud uud dud uud  d d d  d d d d d

Wouldn't it be nice  more time    Bury yourself under the blanket 	    
		    
Guitar 2
e|-5-2h3p2-5-2h3p2--5-2h3p2-5-2h3p2------2-------------------------------------|
B|--------3----------------3----------3-5-2-3-5-3------------------------------|
G|------------------------------------------------4----------------------------|
D|-----------------------------------------------------------------------------|
A|-----------------------------------------------------------------------------|
E|-----------------------------------------------------------------------------|






Guitar 1
(Second time through stop here--->***)
e|-----------------------------------------------------------------------------|
B|-----------------------------------------------------------------------------|
G|-----------------------------------------------------------------------------|
D|-555555-555555-555-777-777-555//---9---7---7/9/11---9---7---7/9/11-----------|
A|-------------------------------------0---0------------0---0------------------|
E|-333333-333333-333-555-555-333//---7-0-5-0-5/7/9----7-0-5-0-5/7/9------------|       
   duduud duduud dud uud dud uud     d (xx0231@1)name="chord_xx0231@1">d d (xx0231@1)name="chord_xx0231@1">d d (xx0231@1)      d (xx0231@1)name="chord_xx0231@1">d d (xx0231@1)name="chord_xx0231@1">d d (xx0231@1)
How do we slow down? How do  run?

Guitar 2
e|-5-2h3p2-5-2h3p2--5-2h3p2----------------------------------------------------|
B|--------3----------------3---------------------------------------------------|
G|-----------------------------------------------------------------------------|
D|-----------------------------------------------------------------------------|
A|-----------------------------------------------------------------------------|
E|-----------------------------------------------------------------------------|



Guitar 1
e|-----------------------------------------------------------------------------|
B|-----------------------------------------------------------------------------|
G|-----------------------------------------------------------------------------|
D|-9---7---7/9/11--9---7-------------------------------------------------------|
A|---0---0-----------0---0-----------------------------------------------------|
E|-7-0-5-0-5/7/9---7-0-5-0-----------------------------------------------------|

Guitar 2
e|-2---------------2-----------------------------------------------------------|
B|---3-5-2-2h3h5-----3-5-2?2h3p2-4---------------------------------------------|
G|-----------------------------------------------------------------------------|
D|-----------------------------------------------------------------------------|
A|-----------------------------------------------------------------------------|
E|-----------------------------------------------------------------------------|

Repeat from the top but this time at the *** above, jump down to *** below.






Guitar 1
( *** and pick back up here)
e|-----------------------------------------------------------------------------|
B|-----------------------------------------------------------------------------|
G|-----------------------------------------6667-------------6667---------------|
D|-9---7---7/9--9-----------7779-----------------------------------------------|
A|---0---0---------------------------------4445-------------4445---------------|
E|-7-0-5-0-5/7--7-----------5557-----------------------------------------------|
                            dudu

Guitar 2
e|----------------5h7p5-3h5p3?---5h7p5-3h5p3----9h10p9-7h9p7------9h10p9-7h9p7-|
B|-----------------------------------------------------------------------------|
G|-----------------------------------------------------------------------------|
D|-----------------------------------------------------------------------------|
A|-----------------------------------------------------------------------------|
E|-----------------------------------------------------------------------------|



Guitar 1
e|-----------------------------------------------------------------------------|
B|-----------------------------------------------------------------------------|
G--------------------------------6667------------6667--------------------------|
D|-7779-----------7779---------------------------------------------------------|
A|-------------------------------4445------------4445--------------------------|
E|-5557-----------5557---------------------------------------------------------|

Guitar 2
e|-----5h7p5-3h5p3----5h7p5-3h5p3----9h10p9-7h9p7----9h10p9-7h9p7--------------|
B|-----------------------------------------------------------------------------|
G|-----------------------------------------------------------------------------|
D|-----------------------------------------------------------------------------|
A|-----------------------------------------------------------------------------|
E|-----------------------------------------------------------------------------|



Guitar 1
e|-----------------------------------------------------------------------------|
B|-----------------------------------------------------------------------------|
G|------------------------6-7-6/7--6-7-6/7-------------------------------------|
D|-55?5~~~~~-55-5~~~~----------------------------------------------------------|
A|------------------------4-5-4/5--4-5-4/5-------------------------------------|
E|-33?3~~~~~-33-5~~~~--------------------------------------------------------x2|
   dd d (xx0231@1)    dd d (xx0231@1)       d (xx0231@1)name="chord_xx0231@1">d d (xx0231@1)  d (xx0231@1)name="chord_xx0231@1">d d (xx0231@1)   Don't let life pass you by tonight
   Brace inside, brace yourself this time       Now I know 

Guitar 2
e|-23232-0h2h3-23232-0h2h3-----------------------------------------------------|
B|------------------------23232-0h2h3-23232-0h2h3------------------------------|
G|-----------------------------------------------------------------------------|
D|-----------------------------------------------------------------------------|
A|-----------------------------------------------------------------------------|
E|---------------------------------------------------------------------------x2|



Guitar 1
e|-----------------------------------------------------------------------------|
B|-----------------------------------------------------------------------------|
G|---------------------------------7-9-11-6-7-9-7-4----------------------------|
D|-555555-555555-555-777-777-555-----------------------------------------------|
A|---------------------------------5-7-9 -4-5-7-5-2----------------------------|
E|-333333-333333-333-555-555-333-----------------------------------------------|
   duduud duduud dud uud dud uud
   
   It's time to let it go          Turn back  to the beginning

Guitar 2
e|------------------------------------------------------2----------------------|
B|-2h3p2-5p3p2-5p3p2-5p3p2--2h3p2-5p3p2-5p3p2-5p3p2--3-5-2-3-5-3---------------|
G|------------------------4------------------------4------------4--------------|
D|-----------------------------------------------------------------------------|
A|-----------------------------------------------------------------------------|
E|-----------------------------------------------------------------------------|


Guitar 1
e|-----------------------------------------------------------------------------|
B|-----------------------------------------------------------------------------|
G|----------------------------------7-9-11-6-7-9-7-4---------------------------|
D|-555555-555555-555-777-777-555-----------------------------------------------|
A|----------------------------------5-7-9 -4-5-7-5-2---------------------------|
E|-333333-333333-333-555-555-333-----------------------------------------------|

Wouldn't it be nice, give it  time Bury yourself under the blanket

Guitar 2
e|-5-2h3p2-5-2h3p2--5-2h3p2-5-2h3p2-9,9,9,10,10,10,12,12,10,10,10,9,9,9,7,7----|
B|--------3----------------3---------------------------------------------------|
G|-----------------------------------------------------------------------------|
D|-----------------------------------------------------------------------------|
A|-----------------------------------------------------------------------------|
E|-----------------------------------------------------------------------------|



Guitar 1
e|-----------------------------------------------------------------------------|
B|-----------------------------------------------------------------------------|
G|-----------------------------------------------------------------------------|
D|-555555-555555-555-777-777-555//---9---7---7/9/11---9---7---7/9/11-----------|
A|-------------------------------------0---0------------0---0------------------|
E|-333333-333333-333-555-555-333//---7-0-5-0-5/7/9----7-0-5-0-5/7/9------------|

How do we  How do we  supposed to run?

Guitar 2
e|-5-2h3p2-5-2h3p2--5-2h3p2----------------------------------------------------|
B|--------3----------------3~~~~~~~--------------------------------------------|
G|-----------------------------------------------------------------------------|
D|-----------------------------------------------------------------------------|
A|-----------------------------------------------------------------------------|
E|-----------------------------------------------------------------------------|



Guitar 1
e|-----------------------------------------------------------------------------|
B|-----------------------------------------------------------------------------|
G|-----------------------------------------------------------------------------|
D|-9---7---7/9/11--9---7-------------------------------------------------------|
A|---0---0-----------0---0-----------------------------------------------------|
E|-7-0-5-0-5/7/9---7-0-5-0-----------------------------------------------------|

Guitar 2
e|-2---------------2-----------------------------------------------------------|
B|---3-5-2-2h3h5-----3-5-2?2h3h2-----------------------------------------------|
G|-------------------------------4~~~~~~~--------------------------------------|
D|-----------------------------------------------------------------------------|
A|-----------------------------------------------------------------------------|
E|-----------------------------------------------------------------------------|     

 |=============================================================================|


Show more