Rufio
White Lights
1985
2003 Nitro Records
Submitted by: paramore_fans@yahoo.com

Key: B

Tuning: Standard EADGBe

Chords used:
G#m -   466444
E- (022100@1)    022100
F# -    244322
B- (x2444x@1)    x24442
F#/Bb - x143xx


Intro: G#m--E-F# x4

Guitar 2:
      G#m (133111@4)          E (022100@1)        F#e|-------------|-----2---0-|-----------| (244322@1)B|---0-4-0-2-0-|---0---0---|-4-2-0---0-|
G|-3-----------|-3---------|-------3---|
D|-------------|-----------|-----------|
A|-------------|-----------|-----------|
E|-------------|-----------|-----------|


Verse 1:
G#m (133111@4)             EHonestly (022100@1)with the things i've
        B (x2444x@1)                F#seen (244322@1)it seems as though we fly
 G#m (133111@4)      Estories (022100@1)go stories leave
     B (x2444x@1)           F#they (244322@1)imprint on my mind


Refrain:
   Ebe (022100@1)honest
      F#we'll (244322@1)be afraid
Efalling (022100@1) F#over (244322@1)again


Guitar 2:
                E (022100@1)                              F#e|--------------------------------|--------------------------------| (244322@1)B|--------------------------------|--------------------------------|
G|------4-4-4---------------------|------4-4-4---------------------|
D|-2-2--------4-4-4-2-2-2-1-1-----|-4-4--------4-4-4-2-2-2-1-1-----|
A|-2-2------------------------2-2-|-4-4------------------------2-2-|
E|-0-0----------------------------|-2-2----------------------------|

                E (022100@1)                              F#e|--------------------------------|--------------------------------| (244322@1)B|--------------------------------|--------------------------------|
G|------4-4-4---------------------|------4-4-4---------palm-mute---|
D|-2-2--------4-4-4-2-2-2-1-1-----|-4-4--------4-4-4-4-4-4-4-4-4-4-|
A|-2-2------------------------2-2-|-4-4--------------4-4-4-4-4-4-4-|
E|-0-0----------------------------|-2-2--------------2-2-2-2-2-2-2-|


Chorus:
G#m (133111@4)   E (022100@1)F# (244322@1)    Btime (x2444x@1)is wasted and gone
G#m (133111@4)   E (022100@1)     F# (244322@1)name="chord_022100@1">E
life is passing on again
    G#m (133111@4)        E (022100@1)F# (244322@1)     Bthe (x2444x@1)white lights leading you on
G#m (133111@4)F# (244322@1)     E (022100@1) is this the end?


Guitar 2: in "the white lights leading you on..."
    G#m (133111@4)     E (022100@1)     F# (244322@1)       Be|-7-6---|--------|--------|----------| (x2444x@1)B|-----9-|-7--7-9-|-7--7-9-|-7--------|
G|-------|--------|--------|----8-6-8-|
D|-------|--------|--------|----------|
A|-------|--------|--------|----------|
E|-------|--------|--------|----------|

    G#m (133111@4)     F# (244322@1)         Ee|-7-6---|--------|------------------| (022100@1)B|-----9-|-7--7-9-|------------------|
G|-------|--------|------palm-mute---|
D|-------|--------|-2--2-2-2-2-2-2-2-|
A|-------|--------|-2--2-2-2-2-2-2-2-|
E|-------|--------|-0--0-0-0-0-0-0-0-|


(Repeat Intro)


Verse 2:
   G#m (133111@4)            Eso (022100@1)this is what you want to be
B (x2444x@1)                F#held (244322@1)too close for eyes to see
     G#m (133111@4)  F# (244322@1)     Eyour (022100@1)fantasy turn to misery


(Repeat Refrain and Chorus)


Bridge:
G#m (133111@4)   E (022100@1)        F# (244322@1)    Bi (x2444x@1)can't see what's on your mind
G#m (133111@4) E (022100@1)           F# (244322@1)   Eall (022100@1)i know's you're bored again
G#m (133111@4)name="chord_022100@1">E        F# (244322@1)     Birresistance (x2444x@1)you will find
G#m (133111@4)   F# (244322@1)    E (022100@1) F#-F#
  while you're alive


Interlude: E--G#m-F#/Bb x2, E--F#


(Repeat Chorus twice)
(Repeat Intro x2 only)

Show more