• Song:

    Resilient Bastard

  • Artist:

    Rvivr

Intro goes something like this: [ E5 Ab5 C#5 B5 ]

e | ---------------------------------------------------------------------- | 
B | ---------------------------------------------7h(b9)--7h(b9)--(b9)-7b-------- | 
G | 8h9p8---4h6-------------------------8h9p8----------------------------- | 
D | --------------4h6-6p4--6---------------------------------------------- | 
A | ---------------------------------------------------------------------- | 
E | ---------------------------------------------------------------------- | 


[Verse 1]
E5       Ab5            C#5
And the script reads,

  B5
"Your name right here,

E5              Ab5
says something rude to me,

C#5          B5
rude to me, rude to me"

E5       Ab5                       
I don't think about it

C#5      B5
I don't linger on it

E5           Ab5          C#5         A5 
rude to me, rude to me, rude to me

[Chorus]
A5    B5       E5           Ab5
     I'm not hurt, I'm a resilient bastard
A5    B5         E5         Ab5 
     I'm okay, I'll wait another day
A5    B5             Ab5         C#5
     I'm not scared, I'm just unaware
A5         B5          E5
     or I just don't care



[Solo] (Verse chords are rhythm )
e | --------------------------------------------------7----7-----7-----7b-- | 
B | -----------------------------------------7h(b9)--7h(b9)-7h(b9)--7h(b9)-7h(b9)9b-- | 
G | 8h9p8---4h6-----------4------------8h9p8------------------------------- | 
D | --------------4h6--4h6----6-------------------------------------------- | 
A | ----------------------------------------------------------------------- | 
E | ----------------------------------------------------------------------- | 


[Verse 2]
E5       Ab5           C#5
And the book reads,

  B5
"Your name right here,

E5              Ab5
says something stupid,

C#5      B5
again"

E5       Ab5                       
I don't think about it

C#5      B5
I don't linger on it

E5       Ab5      C#5      A5
stupid, stupid, stupid


[Chorus Switcheroo]
A5    B5       E5           Ab5
     I'm not hurt, I'm a resilient bastard
A5    B5         E5         Ab5 
     I'm okay, I'll wait another day
A5    B5             Ab5         C#5
     I'm not scared, I'm just unaware
A5         B5          Ab5        A5
     or I just don't caaaaaaaaaare

[Final Chorus] (lead part is just 7th fret on top E)
A5    B5       E5           Ab5
     I'm not hurt, I'm a resilient bastard
A5    B5         E5         Ab5 
     I'm okay, I'll wait another day
A    B             G#         C#  (Lead part is bend fret 4 on top e)
     I'm not scared, I'm just unaware
A5         B5          E5
     or I just don't care

*HUGE PICKSLIDE OUT*
Show more