Tabbed by:Andy Culbreath


Tuning:Standard

Intro
Guitar 1
e|-------------------------------------------------|---------------------------|
B|-------------------------------------------------|---------------------------|
G|------------------------7-7----------------------|---------------------------|
D|-------5--7--8-8--7--5------5--7--8-8--7--5-(x2)-|-2------7------5------6-6--|
A|--7-7--------------------------------------------|-2-(x7)-7-(x7)-5-(x7)-6-6--|
E|-------------------------------------------------|-0------5------3------4-4--|

e|-----------------------------------------|-------------------------------|
B|-----------------------------------------|-------------------------------|
G|------------------------7-7--------------|-------------------------------|
D|-------5--7--8-8--7--5------5--7--8-(x2)-|-2------7------5-5-x-x-6-6-x-x-|
A|--7-7------------------------------------|-2-(x7)-7-(x7)-5-5-x-x-6-6-x-x-|
E|-----------------------------------------|-0------5------3-3-x-x-4-4-x-x-|

Guitar 2
e|----------------------------------------------|---------------------------|
B|--7p0------8p0-------10p0-------8p0-----------|---------------------------|
G|-------(b9)--------(b9)---------(b9)--------(b9)------|---------------------------|
D|-----------------------------------------(x2)-|-2------7------5------6-6--|
A|----------------------------------------------|-2-(x7)-7-(x7)-5-(x7)-6-6--|
E|----------------------------------------------|-0------5------3------4-4--|

e|---------------7---------10~-|-------------7p0--------------|-------------------------------|
B|---8p0-7p0-5p0---8p0-5p0-----|-8p0-7p0-5p0-----8p0-7p0-5p0--|-------------------------------|
G|-----------------------------|------------------------------|-------------------------------|
D|-----------------------------|------------------------------|-2------7------5-5-x-x-6-6-x-x-|
A|-----------------------------|------------------------------|-2-(x7)-7-(x7)-5-5-x-x-6-6-x-x-|
E|-----------------------------|------------------------------|-0------5------3-3-x-x-4-4-x-x-|

Verse
e--4-4--4-4--7-7--7-7--5-5-5-5--2-2-2-2--4-4--4-4--7-7--7-7--5-5-5-5-|
B--5-5--4-4--7-7--(b9)(b9)-5-5-5-5--2-2-2-2--5-5--4-4--7-7--(b9)(b9)-5-5-5-5-|
G--6-6--4-4--8-8--(b9)(b9)-6-6-6-6--2-2-2-2--6-6--4-4--8-8--(b9)(b9)-6-6-6-6-|
D--6-6--6-6--(b9)(b9)-(b9)(b9)-7-7-7-7--4-4-4-4--6-6--6-6--(b9)(b9)-(b9)(b9)-7-7-7-7-|
A--4-4--6-6--(b9)(b9)-7-7--5-5-5-5--4-4-4-4--4-4--6-6--(b9)(b9)-7-7--7-7-7-7-|
E-------4-4--7-7-------5-5-5-5--2-2-2-2-------4-4--7-7-------5-5-5-5-|

Bridge
e--7-7--7-7-7-|-7-7-7--7-7-7-|-4-4-4-4-4-4-4-4-|
B--(b9)(b9)-(b9)(b9)(b9)|-7-7-7--7-7-7-|-5-5-5-4-4-4p5-5-|
G--(b9)(b9)-(b9)(b9)(b9)|-8-8-8--8-8-8-|-6-6-6-6-6-6-6-6-|
D--(b9)(b9)-(b9)(b9)(b9)|-(b9)(b9)(b9)-(b9)(b9)(b9)|-6-6-6-6-6-6-6-6-|
A--7-7--7-7-7-|-(b9)(b9)(b9)-(b9)(b9)(b9)|-4-4-4-4-4-4-4-4-|
E-------------|-7-7-7--7-7-7-|-4-4-4-4-4-4-4-4-|

Fill
e|--------7-----------------------|-4-4-4-4-4-4-4-4-|-7-7---(b9)-(b9)-3-3--4-4-|
B|----(b9)(b9)--(b9)7-7-9p7---------7-(b9)|-5-5-5-4-4-4p5-5-|-8-8--10-10--3-3--4-4-|
G|--(b9)----------------6-(b9)6-(b9)----|-6-6-6-6-6-6-6-6-|-(b9)(b9)-11-11--4-4--5-5-|
D|--------------------------------|-6-6-6-6-6-6-6-6-|-(b9)(b9)-11-11--5-5--6-6-|
A|--------------------------------|-4-4-4-4-4-4-4-4-|-7-7---(b9)-(b9)-5-5--6-6-|
E|--------------------------------|-4-4-4-4-4-4-4-4-|-------------3-3--4-4-|

Fill 2
e|---------------------------------|
B|---------------------------------|
G|---------------------------------|
D|-2-2-2-2-2-2-7-7-7-7-7-7-5-5-6-6-|
A|-2-2-2-2-2-2-7-7-7-7-7-7-5-5-6-6-|
E|-0-0-0-0-0-0-5-5-5-5-5-5-3-3-4-4-|
p.m. . . . . . . . . . . . . . . . .
Order:
Intro
Verse x2
Bridge x4
Fill
Verse x2
(Improv.)
Bridge x4
Fill 2
Verse x2

| /  slide up
| \  slide down
| h  hammer-on
| p  pull-off
| ~  vibrato
| +  harmonic
| x  Mute note
Show more