:Intro/First half of verse:
  Em    D         G         A

e|--7-7--5-5--x-x--3-3--x-x--5-5--x-x-|
B|--8-8--7-7--x-x--3-3--x-x--5-5--x-x-|
G|--(b9)(b9)-7-7--x-x--4-4--x-x--6-6--x-x-|
D|--(b9)(b9)-7-7--x-x--5-5--x-x--7-7--x-x-|
A|--7-7--5-5--x-x--5-5--x-x--7-7--x-x-|
E|-----------------3-3-------5-5------|

repeat

:Second half of verse:
Same chords, but faster ska beat, no pick scrapes in between.


:Chorus:
( F# )       ( E )            ( D )   ( E )
"I know the answer to this question..."

   F#m  E   D 

e|---(b9)--7---5---   You'll have to figure out the
B|--10---(b9)--7---   strumming for yourself.
G|--11---(b9)--7---   
D|--11---(b9)--7---
A|---(b9)--7---5---
E|---------------


:Bridge:

e|---(b9)--12--|--(b9)--(b9)-12p(b9)-(b9)--(b9)-|---(b9)--(b9)--12--|----11--11--11--|
B|--10---10--|-10--10--10---10--10--|--10--10---10--|----10--10--10--|
G|---(b9)---(b9)-|--(b9)--(b9)--(b9)---(b9)--(b9)-|---(b9)--(b9)---(b9)-|-----(b9)--(b9)--(b9)-|
D|--11---11--|-11--11--11---11--11--|--11--11---11--|----10--10--10--|
A|---(b9)---(b9)-|--(b9)--(b9)--(b9)---(b9)--(b9)-|---(b9)--(b9)---(b9)-|--(b9)-(b9)--(b9)--(b9)-|
E|-----------|----------------------|---------------|----------------|

...then he just strums the f#m chord from above, before launching into
the chorus again.
Show more