Tabbed by: Bill Streckfus

Tempo = 180 bpm

Intro:
------------------------------------------------------------------------------

Guitar 1 (light wah/delay):

   Bbm                            Ab
E|-6----------------|-------------4-4--|
B|-6----------------|-------------4-4--|
G|-6----------------|------------------|
D|------------------|------------------|
A|------------------|------------------|
E|------------------|------------------|

   Bbm                Ab                 Bbm                Gb      Ab
E|-4---6---x---6----|-x---8---x---8----|-x---6---x---6----|-x---6---x---8----|
B|-4---6---x---6----|-x---(b9)--x---(b9)---|-x---6---x---6----|-x---7---x---(b9)---|
G|-----6---x---6----|-x---8---x---8----|-x---6---x---6----|-x---6---x---8----|
D|------------------|------------------|------------------|------------------|
A|------------------|------------------|------------------|------------------|
E|------------------|------------------|------------------|------------------|

   Bbm                Ab                 Bbm                
E|-x---6---x---6----|-x---8---x---8----|-x---6---x---6----|-x---6---x---6----|
B|-x---6---x---6----|-x---(b9)--x---(b9)---|-x---6---x---6----|-x---6---x---6----|
G|-x---6---x---6----|-x---8---x---8----|-x---6---x---6----|-x---6---x---6----|
D|------------------|------------------|------------------|------------------|
A|------------------|------------------|------------------|------------------|
E|------------------|------------------|------------------|------------------|

   Bbm                Ab                 Bbm                Gb      Ab
E|-x---6---x---6----|-x---8---x---8----|-x---6---x---6----|-x---6---x---8----|
B|-x---6---x---6----|-x---(b9)--x---(b9)---|-x---6---x---6----|-x---7---x---(b9)---|
G|-x---6---x---6----|-x---8---x---8----|-x---6---x---6----|-x---6---x---8----|
D|------------------|------------------|------------------|------------------|
A|------------------|------------------|------------------|------------------|
E|------------------|------------------|------------------|------------------|

   Bbm                Ab                 Bbm               
E|-x---6---x---6----|-x---8---x---8----|-x---6---x---6----|-x---6-----6-x-6--|
B|-x---6---x---6----|-x---(b9)--x---(b9)---|-x---6---x---6----|-x---6-----6-x-6--|
G|-x---6---x---6----|-x---8---x---8----|-x---6---x---6----|-x---6-----6-x-6--|
D|------------------|------------------|------------------|------------------|
A|------------------|------------------|------------------|------------------|
E|------------------|------------------|------------------|------------------|

Verse:
------------------------------------------------------------------------------

The verse follows pretty closely to the intro.

Guitar 1 (light wah/delay):

   Bbm                Ab                 Bbm                Gb      Ab
E|-x---6---x---6----|-x---8---x---8----|-x---6---x---6----|-x---6---x---8----|
B|-x---6---x---6----|-x---(b9)--x---(b9)---|-x---6---x---6----|-x---7---x---(b9)---|
G|-x---6---x---6----|-x---8---x---8----|-x---6---x---6----|-x---6---x---8----|
D|------------------|------------------|------------------|------------------|
A|------------------|------------------|------------------|------------------|
E|------------------|------------------|------------------|------------------|

   Bbm                Ab                 Bbm                
E|-x---6---x---6----|-x---8---x---8----|-x---6---x---6----|-x---6-6-x---x-6--|
B|-x---6---x---6----|-x---(b9)--x---(b9)---|-x---6---x---6----|-x---6-6-x---x-6--|
G|-x---6---x---6----|-x---8---x---8----|-x---6---x---6----|-x---6-6-x---x-6--|
D|------------------|------------------|------------------|------------------|
A|------------------|------------------|------------------|------------------|
E|------------------|------------------|------------------|------------------|

   Bbm                Ab                 Bbm                Gb      Ab
E|-x---6---x---6----|-x---8---x---8----|-x---6---x---6----|-x---6---x---8----|
B|-x---6---x---6----|-x---(b9)--x---(b9)---|-x---6---x---6----|-x---7---x---(b9)---|
G|-x---6---x---6----|-x---8---x---8----|-x---6---x---6----|-x---6---x---8----|
D|------------------|------------------|------------------|------------------|
A|------------------|------------------|------------------|------------------|
E|------------------|------------------|------------------|------------------|

   Bbm                Ab                 Bbm               
E|-x---6---x---6----|-x---8---x---8----|-x---6---x-6---6--|---------x---x-x--|
B|-x---6---x---6----|-x---(b9)--x---(b9)---|-x---6---x-6---6--|---------x---x-x--|
G|-x---6---x---6----|-x---8---x---8----|-x---6---x-6---6--|---------x---x-x--|
D|------------------|------------------|---------------8--|------------------|
A|------------------|------------------|------------------|------------------|
E|------------------|------------------|------------------|------------------|

   Gb                 Ab                 Bbm
E|-x---2---x---2----|-x---4---x---4----|-x---6---x---6----|-x---6---x---6----|
B|-x---2---x---2----|-x---4---x---4----|-x---6---x---6----|-x---6---x---6----|
G|-x---3---x---3----|-x---5---x---5----|-x---6---x---6----|-x---6---x---6----|
D|------------------|------------------|------------------|------------------|
A|------------------|------------------|------------------|------------------|
E|------------------|------------------|------------------|------------------|

   Gb                 Ab                 Bbm
E|-x---6---x---6----|-x---8---x---8-8--|-x---6---x---6----|-x---6---x---6----|
B|-x---7---x---7----|-x---(b9)--x---(b9)(b9)-|-x---6---x---6----|-x---6---x---6----|
G|-x---6---x---6----|-x---8---x---8-8--|-x---6---x---6----|-x---6---x---6----|
D|------------------|------------------|------------------|------------------|
A|------------------|------------------|------------------|------------------|
E|------------------|------------------|------------------|------------------|

   Gb                 Ab                 Gb                 Ab
E|-6---x-------6-6/-|-8---8---x--11-8--|-x---6---x---6-6/-|-8-8-8-------8-8--|
B|-7---x-------7-7/-|-(b9)--(b9)--x---(b9)(b9)-|-x---7---x---7-7/-|-(b9)(b9)(b9)------(b9)(b9)-|
G|-6---x-------6-6/-|-8---8---x---8-8--|-x---6---x---6-6/-|-8-8-8-------8-8--|
D|-8----------------|------------------|------------------|------------------|
A|------------------|------------------|------------------|------------------|
E|------------------|------------------|------------------|------------------|

   Gb                 Ab                 Bbm
E|-x---6---x---6----|-x-6/8---x--11-8--|-6-6---------6----|-9/---------------|
B|-x---7---x---7----|-x-7(b9)--x---(b9)(b9)-|-6-6---------6----|-6/---------------|
G|-x---6---x---6----|-x-6/8---x---8-8--|-6-6---------6----|-6/---------------|
D|------------------|------------------|------------------|------------------|
A|------------------|------------------|------------------|------------------|
E|------------------|------------------|------------------|------------------|

Chorus:
------------------------------------------------------------------------------

Guitar 1 (light wah/delay):

   Gb                 Ab                 Gb                 Ab
E|------------------|------------------|------------------|------------------|
B|------------------|------------------|------------------|------------------|
G|------------------|------------------|------------------|------------------|
D|---------8-8------|--------1010------|---------8-8------|------------10----|
A|-------(b9)----(b9)---|------11----11----|-------(b9)----(b9)---|11-11-11----------|
E|------------------|--------------11--|---------------(b9)-|------------------|
                                                           p.m.p.m.

   Gb                 Ab                 Bbm
E|------------------|------------------|------------------|---------x-x-x----|
B|------------------|------------------|------------------|---------x-x-x----|
G|------------------|------------------|------------------|---------x-x-x----|
D|---------8-8------|--------1010------|---888-8-8---6----|-8/---------------|
A|-------(b9)----(b9)---|11111111----11----|-----------8---8--|------------------|
E|---------------(b9)-|--------------11--|------------------|------------------|
                     p.m.p.m.              p.m.p.m.p.m.

   Gb                 Ab                 Gb                 Ab
E|-x---2-x---x-2----|-x---4-x---x-4----|-x---2-x---x-2----|-x---4-x---x-4----|
B|-x---2-x---x-2----|-x---4-x---x-4----|-x---2-x---x-2----|-x---4-x---x-4----|
G|-x---3-x---x-3----|-x---5-x---x-5----|-x---3-x---x-3----|-x---5-x---x-5----|
D|------------------|------------------|------------------|------------------|
A|------------------|------------------|------------------|------------------|
E|------------------|------------------|------------------|------------------|

   Gb                 Ab                 Bbm
E|-x---2-x---x-2----|-x---4-x---x-4----|-----x-6---x--66--|-6/--------x-x----|
B|-x---2-x---x-2----|-x---4-x---x-4----|-----x-6---x--66--|-6/--------x-x----|
G|-x---3-x---x-3----|-x---5-x---x-5----|-----x-6---x--66--|-6/--------x-x----|
D|------------------|------------------|------------------|------------------|
A|------------------|------------------|------------------|------------------|
E|------------------|------------------|------------------|------------------|

Last Chorus Ending:

   Gb                 Ab                 Bbm                            Ab
E|-x---2-x---x-2----|-x---4-x---x-4----|-----x-6---x---6--|-6-----6-----4----|
B|-x---2-x---x-2----|-x---4-x---x-4----|-----x-6---x---6--|-6-----6-----4----|
G|-x---3-x---x-3----|-x---5-x---x-5----|-----x-6---x---6--|-6-----6-----5----|
D|------------------|------------------|------------------|------------------|
A|------------------|------------------|------------------|------------------|
E|------------------|------------------|------------------|------------------|

   Gb                 Ab                 Gb                 Ab
E|-2----------------|-4----------------|-2----------------|-4----------------|
B|-2----------------|-4----------------|-2----------------|-4----------------|
G|-3----------------|-5----------------|-3----------------|-5----------------|
D|------------------|------------------|------------------|------------------|
A|------------------|------------------|------------------|------------------|
E|------------------|------------------|------------------|------------------|

   Gb                 Ab                 Bbm
E|-2----------------|-4----------------|-6-6-6-6-6-6-6-6--|-6----------------|
B|-2----------------|-4----------------|-6-6-6-6-6-6-6-6--|-6----------------|
G|-3----------------|-5----------------|-6-6-6-6-6-6-6-6--|-6----------------|
D|------------------|------------------|------------------|------------------|
A|------------------|------------------|------------------|------------------|
E|------------------|------------------|------------------|------------------|

Verse 2:
------------------------------------------------------------------------------

Guitar 1 (light wah/delay):

   Bbm                Ab                 Bbm                Gb      Ab
E|-x---6---x---6----|-x---8---x---8----|-x---6---x---6----|-x---6---x---8----|
B|-x---6---x---6----|-x---(b9)--x---(b9)---|-x---6---x---6----|-x---7---x---(b9)---|
G|-x---6---x---6----|-x---8---x---8----|-x---6---x---6----|-x---6---x---8----|
D|------------------|------------------|------------------|------------------|
A|------------------|------------------|------------------|------------------|
E|------------------|------------------|------------------|------------------|

   Bbm                Ab                 Bbm                
E|-x---6---x---6----|-x---8---x---8----|-x---6---x---6----|-x---6---x---6----|
B|-x---6---x---6----|-x---(b9)--x---(b9)---|-x---6---x---6----|-x---6---x---6----|
G|-x---6---x---6----|-x---8---x---8----|-x---6---x---6----|-x---6---x---6----|
D|------------------|------------------|------------------|------------------|
A|------------------|------------------|------------------|------------------|
E|------------------|------------------|------------------|------------------|

   Bbm                Ab                 Bbm                Gb      Ab
E|-x---6---x---6----|-x---8---x---8----|-x---6---x---6----|-x---6---x---8----|
B|-x---6---x---6----|-x---(b9)--x---(b9)---|-x---6---x---6----|-x---7---x---(b9)---|
G|-x---6---x---6----|-x---8---x---8----|-x---6---x---6----|-x---6---x---8----|
D|------------------|------------------|------------------|------------------|
A|------------------|------------------|------------------|------------------|
E|------------------|------------------|------------------|------------------|

   Bbm                Ab                 Bbm                
E|-x---6---x---6----|-x---8---x---8----|-x---6---x-6---6--|------------------|
B|-x---6---x---6----|-x---(b9)--x---(b9)---|-x---6---x-6---6--|------------------|
G|-x---6---x---6----|-x---8---x---8----|-x---6---x-6---6--|------------------|
D|------------------|------------------|---------------8--|------------------|
A|------------------|------------------|------------------|------------------|
E|------------------|------------------|------------------|------------------|

   Bbm                Ab                 Bbm                Gb      Ab
E|-x---6---x---6----|-x---8---x---8----|-x---6---x---6----|-x---6---x---8----|
B|-x---6---x---6----|-x---(b9)--x---(b9)---|-x---6---x---6----|-x---7---x---(b9)---|
G|-x---6---x---6----|-x---8---x---8----|-x---6---x---6----|-x---6---x---8----|
D|------------------|------------------|------------------|------------------|
A|------------------|------------------|------------------|------------------|
E|------------------|------------------|------------------|------------------|

   Bbm                Ab                 Bbm                
E|-x---6---x---6----|-x---8---x---8----|-x---6---x---8----|-----------8-x-6--|
B|-x---6---x---6----|-x---(b9)--x---(b9)---|-x---6---x---(b9)---|-----------(b9)x-6--|
G|-x---6---x---6----|-x---8---x---8----|-x---6---x---8----|-----------8-x-6--|
D|------------------|------------------|------------------|------------------|
A|------------------|------------------|------------------|------------------|
E|------------------|------------------|------------------|------------------|

   Bbm                Ab                 Bbm                Gb      Ab
E|-6---6---x---6----|-x---8---x--11--8-|-x---6---x---6----|-x---6---x---8-8--|
B|-6---6---x---6----|-x---(b9)--x---(b9)-(b9)|-x---6---x---6----|-x---7---x---(b9)(b9)-|
G|-6---6---x---6----|-x---8---x---8--8-|-x---6---x---6----|-x---6---x---8-8--|
D|-8----------------|------------------|------------------|------------------|
A|------------------|------------------|------------------|------------------|
E|------------------|------------------|------------------|------------------|

   Bbm                Ab                 Bbm                
E|-x---6---x---6----|-x---8---x--11--8-|-x---x-6-x---6----|-6----------------|
B|-x---6---x---6----|-x---(b9)--x---(b9)-(b9)|-x---x-6-x---6----|-6----------------|
G|-x---6---x---6----|-x---8---x---8--8-|-x---x-6-x---6----|-6----------------|
D|------------------|------------------|------------------|-8----------------|
A|------------------|------------------|------------------|------------------|
E|------------------|------------------|------------------|------------------|

Jam Session
------------------------------------------------------------------------------

Guitar 1:
  
   Am                                    Dm      Em         F       G
E|---------5---5----|-5---5-x-5---x-x--|------------------|------------------|
B|-5-------5---5----|-5---5-x-7---x-x--|------------------|------------------|
G|-----7---5---5----|-5---5-x-5---x-x--|-7---7---(b9)--(b9)---|10--10--12--12----|
D|------------------|------------------|------------------|------------------|
A|------------------|------------------|-5---5---7---7----|-8---8--10--10----|
E|------------------|------------------|------------------|------------------|

   Am                                    Dm      Em         F       G
E|-5---5---5---5----|------------------|------------------|------------------|
B|-5---5---5---5----|------------------|------------------|------------------|
G|-5---5---5---5----|------------------|-7---7---(b9)--(b9)---|10--10--12--12----|
D|------------------|------------------|------------------|------------------|
A|------------------|------------------|-5---5---7---7----|-8---8--10--10----|
E|------------------|------------------|------------------|------------------|
                                   rake

   Am                                    Dm      Em         F       G
E|-5---5---5---5----|------------------|------------------|------------------|
B|-5---5---5---5----|------------------|------------------|------------------|
G|-5---5---5---5----|------------------|-7---7---(b9)--(b9)---|10--10--12--12-x--|
D|------------------|------------------|------------------|------------------|
A|------------------|------------------|-5---5---7---7----|-8---8--10--10-x--|
E|------------------|------------------|------------------|------------------|

   Am                                    Dm      Em         F       G
E|-5---5---5---5----|------------------|------------------|------------------|
B|-5---5---5---5----|------------------|------------------|------------------|
G|-5---5---5---5----|------------------|-7---7---(b9)--(b9)---|10--10--12--------|
D|------------------|------------------|------------------|------------------|
A|------------------|------------------|-5---5---7---7----|-8---8--10--------|
E|------------------|------------------|------------------|------------------|

   Am                                    Dm      Em         F       G
E|-5---5---5---5-x--|-5---5---5---x----|------------------|------------------|
B|-5---5---5---5-x--|-5---5---5---x----|------------------|------------------|
G|-5---5---5---5-x--|-5---5---5---x----|-7---7-x-(b9)--(b9)x--|10--10-x12-1212/--|
D|-2---2---2---2----|------------------|------------------|------------------|
A|------------------|------------------|-5---5-x-7---7-x--|-8---8-x10-1010/--|
E|------------------|------------------|------------------|------------------|
                                  rake

   Am                                    Dm      Em         F       G
E|-5---5---5--55----|---------5--------|------------------|------------------|
B|-5---5---5--55----|---------5--------|------------------|------------------|
G|-5---5---5--55----|---------5--------|-7---7-x-(b9)--(b9)12-|10--101412--12----|
D|------------------|------------------|------------------|------------------|
A|------------------|------------------|-5---5-x-7---7-10-|-8---81210--10----|
E|------------------|------------------|------------------|------------------|

   Am                                    Dm      Em         F       G
E|-5---5---5---5~---|---------5~-------|------------------|------------------|
B|-5---5---5---5~---|---------5~-------|------------------|------------------|
G|-5---5---5---5~---|---------5~-------|-7---7---(b9)--(b9)---|10--101412--12----|
D|------------------|------------------|------------------|------------------|
A|------------------|------------------|-5---5---7---7----|-8---81210--10----|
E|------------------|------------------|------------------|------------------|

   Am                                    Dm      Em         F       G
E|-8----------8-----|------------------|------------------|------------------|
B|10---8--10---10~--|------------------|------------------|------------------|
G|------------------|-------x1412------|-7---7---(b9)--(b9)---|10--1010121212----|
D|------------------|------------------|------------------|------------------|
A|------------------|-------x1210------|-5---5---7---7----|-8---8-8101010----|
E|------------------|------------------|------------------|------------------|

   Am                                    Dm      Em         F       G
E|------------------|------------------|------------------|------------------|
B|------------------|------------------|------------------|------------------|
G|------------------|------------------|-7--77--57--77--5-|-7--77--57--9(b9)---|
D|------------------|------------------|------------------|------------------|
A|------------------|------------------|------------------|------------------|
E|------------------|------------------|------------------|------------------|
                                         p.m.p.m.p.m.p.m.   p.m.p.m.p.m.p.m.

   Am                                    Dm      Em         F       G
E|------------------|------------------|------------------|------------------|
B|------------------|------------------|------------------|------------------|
G|-----999(b9)--------|------------------|-7---7---7---7--5-|-7--57--(b9)--------|
D|----7-----107-----|------------------|------------------|---------10-(b9)-77-|
A|------------------|------------------|------------------|------------------|
E|------------------|------------------|------------------|------------------|
      p.m.p.m.

   Am                                    Dm      Em         F       G
E|------------------|------------------|------------------|------------------|
B|------------------|------------------|------------------|------------------|
G|-------------(b9)---|------------------|-7---7--57---7--5-|-7-5--7-5------77-|
D|-7---910----------|------------------|------------------|------------------|
A|------------------|------------------|------------------|------------------|
E|------------------|------------------|------------------|------------------|

   Am                                    Dm      Em         F       G
E|------------------|------------------|------------------|------------------|
B|------------------|------------------|------------------|------------------|
G|-------------(b9)---|------------------|-7---7--57---7--5-|-7-5--7-5------77-|
D|-7---910----------|------------------|------------------|------------------|
A|------------------|------------------|------------------|------------------|
E|------------------|------------------|------------------|------------------|

   Am                                    Dm      Em         F       G
E|------------------|------------------|------------------|------------------|
B|------------------|------------------|------------------|------------------|
G|-------------(b9)---|------------------|-7---7--57---7--5-|-7-5--7-5------77-|
D|-7---7---7--------|------------------|------------------|------------------|
A|------------------|------------------|------------------|------------------|
E|------------------|------------------|------------------|------------------|

                                  A5
E|------------------|------------------|------------------|------------------|
B|------------------|------------------|------------------|------------------|
G|------------------|-------------7/---|------------------|------------------|
D|------------------|------------------|------------------|------------------|
A|------------------|-------------5/---|------------------|------------------|
E|------------------|------------------|------------------|------------------|

Guitar 2:

   Am                                    Dm      Em         F       G
E|------------------|------------------|------------------|------------------|
B|------------------|------------------|------------------|------------------|
G|------------------|------------------|------------------|------------------|
D|------------------|------------------|-----7-------7----|-----7-------7----|
A|------------------|------------------|------------------|------------------|
E|------------------|------------------|------------------|------------------|

   Am                                    Dm      Em         F       G
E|------------------|------------------|------------------|------------------|
B|----10------10----|----10------10----|----10------10----|----10------10----|
G|------------------|------------------|------------------|------------------|
D|------------------|------------------|------------------|------------------|
A|------------------|------------------|------------------|------------------|
E|------------------|------------------|------------------|------------------|

   Am                                    Dm      Em         F       G
E|------------------|------------------|------------------|------------------|
B|----10------10----|----10------10----|----10------10----|----10------10----|
G|------------------|------------------|------------------|------------------|
D|------------------|------------------|------------------|------------------|
A|------------------|------------------|------------------|------------------|
E|------------------|------------------|------------------|------------------|
                                           p.m.    p.m.        p.m.    p.m.

   Am                                    Dm      Em         F       G
E|------------------|------------------|------------------|------------------|
B|------------------|------------------|----10------10----|------------------|
G|------------------|------------------|------------------|------------------|
D|------------------|------------------|------------------|------------------|
A|------------------|------------------|------------------|------------------|
E|------------------|------------------|------------------|------------------|
                                           p.m.    p.m.   

   Am                                    Dm      Em         F       G
E|------------------|------------------|------------------|------------------|
B|----------1010b12-|----1010b12-10----|----------10b12---|----10b12---10b12-|
G|------------------|------------------|------------------|------------------|
D|------------------|------------------|------------------|------------------|
A|------------------|------------------|------------------|------------------|
E|------------------|------------------|------------------|------------------|

   Am                                    Dm      Em         F       G
E|------------------|------------------|------------------|------------------|
B|------------------|------------------|----------10b1210-|----10b1210-10b12-|
G|------------------|------------------|------------------|------------------|
D|------------------|------------------|------------------|------------------|
A|------------------|------------------|------------------|------------------|
E|------------------|------------------|------------------|------------------|

   Am                                    Dm      Em         F       G
E|------------------|------------------|------------------|------------------|
B|----------1010b12-|--10-10--10/------|------------------|------------------|
G|------------------|------------------|------------------|------------------|
D|------------------|------------------|------------------|------------------|
A|------------------|------------------|------------------|------------------|
E|------------------|------------------|------------------|------------------|

   Am                                    Dm      Em         F       G
E|------------------|------------------|------------------|------------------|
B|----------1010b12-|------------------|------------------|------------------|
G|------------------|------------------|------------------|------------------|
D|------------------|------------------|------------------|------------------|
A|------------------|------------------|------------------|------------------|
E|------------------|------------------|------------------|------------------|

   Am                                    Dm      Em         F       G
E|------------------|------------------|------------------|------------------|
B|----10------10----|----10------10----|------------------|------------------|
G|------------------|------------------|------------------|------------------|
D|------------------|------------------|------------------|------------------|
A|------------------|------------------|------------------|------------------|
E|------------------|------------------|------------------|------------------|

   Am                                    Dm      Em         F       G
E|------------------|------------------|------------------|------------------|
B|------------------|------------------|------------------|------------------|
G|------------------|------------------|------------------|------------------|
D|------------------|------------------|------------------|------------------|
A|------------------|------------------|------------------|------------------|
E|------------------|------------------|------------------|------------------|

   Am                                    Dm      Em         F       G
E|------------------|------------------|------------------|------------------|
B|------------------|------------------|------------------|------------------|
G|------------------|------------------|------------------|------------------|
D|------------------|------------------|------------------|------------------|
A|------------------|------------------|------------------|------------------|
E|------------------|------------------|------------------|------------------|

   Am                                    Dm      Em         F       G
E|------------------|------------------|------------------|------------------|
B|------------------|------------------|------------------|------------------|
G|------------------|------------------|------------------|------------------|
D|-------------7----|------------------|------------------|------------------|
A|------------------|------------------|------------------|------------------|
E|------------------|------------------|------------------|------------------|
             delay

   Am                                    Dm      Em         F       G
E|------------------|------------------|------------------|------------------|
B|------------------|------------------|------------------|------------------|
G|------------------|------------------|------------------|------------------|
D|------------------|------------------|------------------|------------------|
A|------------------|------------------|------------------|------------------|
E|------------------|------------------|------------------|------------------|
   
   A5
E|------------------|------------------|------------------|------------------|
B|------------------|------------------|------------------|------------------|
G|------------------|------------------|------------------|------------------|
D|------------------|------------------|------------------|------------------|
A|-------------3h5--|------------------|------------------|------------------|
E|------------------|------------------|------------------|------------------|
             delay
Show more