Tabbed by:Andy Culbreath
Tuning:Standard

Verse 1
Guitar 1
e|--7-7--5-5-5--7-7--5-5-5--7-7--5-5-5--x-x-x-x-x-x--5-5-|
B|--8-8--5-5-5--8-8--5-5-5--8-8--5-5-5--x-x-x-x-x-x--5-5-|
G|--(b9)(b9)-5-5-5--(b9)(b9)-5-5-5--(b9)(b9)-5-5-5--x-x-x-x-x-x--5-5-|  
D|--(b9)(b9)-7-7-7--(b9)(b9)-7-7-7--(b9)(b9)-7-7-7--x-x-x-x-x-x--7-7-|
A|--7-7--7-7-7--7-7--7-7-7--7-7--7-7-7--x-x-x-x-x-x--7-7-|
E|--7-7--5-5-5--7-7--5-5-5--7-7--5-5-5--x-x-x-x-x-x--5-5-|

 
Guitar 2                            around :27...
e|--7h8----h7-5h7-5----3h5-3--|--------------------------7-7-7-7-|
B|--8-8-----5-5-5-5----5-5-5--|--4-4-4-4-7-7-7-7-8-8-8-8---------|
G|------------------------------|----------------------------------|
D|------------------------------|----------------------------------|
A|------------------------------|----------------------------------|
E|------------------------------|----------------------------------|
 Just mess around with those chords.

Bridge (:33)
Guitar 1
e|--8--8--8-x---8--8------|--5-5-x-5-5-5-x-7-7-x-5-5-5--5-5-x-5-5-5--7-7-x-5-5-5-|
B|-10-10-10-x--10-10------|--6-6-x-5-5-5-x-(b9)(b9)x-5-5-5--6-6-x-5-5-5--8-8-x-5-5-5-|
G|-10-10-10-x--10-10------|--7-7-x-5-5-5-x-(b9)(b9)x-5-5-5--7-7-x-5-5-5--(b9)(b9)x-5-5-5-|
D|-10-10-10-x--10-10-(x4)-|--7-7-x-7-7-7-x-(b9)(b9)x-7-7-7--7-7-x-7-7-7--(b9)(b9)x-7-7-7-|
A|--8--8--8-x---8--8------|--5-5-x-7-7-7-x-7-7-x-7-7-7--5-5-x-7-7-7--7-7-x-7-7-7-|
E|--8--8--8-x---8--8------|--5-5-x-5-5-5-x-7-7-x-5-5-5--5-5-x-5-5-5--7-7-x-5-5-5-|
Guitar 2
e|----------------------|---------------------------------------|
B|--------88------------|---------------------------------------|
G|-----55----55---------|---------------------------------------|
D|-----------------(x4)-|------------------7-7-------------(x2)-|
A|--88------------------|------3-5-7-7-5-3-----3-5-7-7-5-3------|
E|----------------------|--5-5----------------------------------|

Verse 2 (1:27)
e|--5-5-5-5--5-5-5-5---8--8--8--8--7-7-7-7--|---8--8--8--8---8--8--8--8--7-7-7-7--7-7-7-7-|
B|--5-5-5-5--6-6-6-6---8--8--8--8--(b9)(b9)(b9)(b9)-|--10-10-10-10---8--8--8--8--7-7-7-7--(b9)(b9)(b9)(b9)|
G|--5-5-5-5--7-7-7-7---(b9)-(b9)-(b9)-(b9)-(b9)(b9)(b9)(b9)-|--10-10-10-10---(b9)-(b9)-(b9)-(b9)-8-8-8-8--7-7-7-7-|
D|--7-7-7-7--7-7-7-7--10-10-10-10--(b9)(b9)(b9)(b9)-|--10-10-10-10--10-10-10-10--(b9)(b9)(b9)(b9)-(b9)(b9)(b9)(b9)|
A|--7-7-7-7--5-5-5-5--10-10-10-10--7-7-7-7--|---8--8--8--8--10-10-10-10--(b9)(b9)(b9)(b9)-7-7-7-7-|
E|--5-5-5-5--5-5-5-5---8--8--8--8--7-7-7-7--|---8--8--8--8---8--8--8--8--7-7-7-7----------|

outro
e-------|
B-----1-|
G----2--|
D---2---|
A--0----|
E-------|

order:
verse 1 x8
Bridge
verse 1 x4
verse 2 x6
outro

| /  slide up
| \  slide down
| h  hammer-on
| p  pull-off
| ~  vibrato
| +  harmonic
| x  Mute note
Show more