Tabbed by: OnlyOnTuesdays

Rx Bandits

Tainted Wheat

Tuning: Standard eBGDAE

Cool song. I'll gradually finish it. 

Key 

.  - palm mute
/  - slide up and down to
b  - Bend
() - Natural harmonics
*  - Pinch harmonics
h  - Hammer
p  - Pull off
"  - Tremolo Picking
x  - Mute



Insane Intro. 0:00-0:23
eb|-------------------------------------------------------------------------------||
Bb|-------------------------------------------------------------------------------||
Gb|--12-12-12-11-12---------------------------------------------------------------|| 
Db|----------------------------(b9)-----------------(b9)------------------(b9)----------|| 
Ab|--10-10-10-(b9)-10----10-10-7---7-10-7---------7---7-10-7---------10-----(b9)10-12-||
Eb|-------------------------------------0------------------0----12------0---------||


eb|-------------------------------------------------------------------||
Bb|-------------------------------------------------------------------||
Gb|-------------------------------------------------------------------|| 
Db|------------(b9)-----------------(b9)--------------------(b9)------------|| x3
Ab|----10-10-7---7-10-7---------7---7-10-7-----------10-------(b9)10-12-||
Eb|---------------------0-------------------0-----12-------0----------||


eb|-------------------------------------------||
Bb|------------------------11-11--11-11-------||
Gb|------------------------11-11--11-11-------|| 
Db|----------(b9)------------11-11--11-11-------||
Ab|--10-10-7---7-10-7------(b9)-(b9)--(b9)-(b9)-------||
Eb|-------------------0-----------------------||


Verse Clean w/ Delay Part 1  0:23-0:33
eb|-----14-14--15--1(b9)---17------14---14-15-1(b9)17----||
Bb|--12---------------1(b9)-------------------------17-||
Gb|--------------------------------------------------|| 
Db|--------------------------------------------------|| 
Ab|--------------------------------------------------||
Eb|--------------------------------------------------||
Show more