• Song:

    Some Kind Of Love

  • Artist:

    Ry Cuming

  • Album:

    Some Kind Of Love EP

Standard Tuning

INTRO
-----

Guitar 1
e|------------------------------------------------|
b|------------------------------------------------|
g|--12-12-12-11-11-11-11--(b9)-(b9)-(b9)11-11-11-11-11--|
d|---0--0--0--0--0--0--0--0--0--0--0--0--0--0--0--| x2
a|---x--x--x--x--x--x--x--x--x--x--x--x--x--x--x--|
E|--10-10-10-10-10-10-10-10-10-10-10-10-10-10-10--|

                                                     (Play Throughout)
e|------------------------------------------------|
b|------------------------------------------------|
g|--12-12-12-11-11-11-11--(b9)-(b9)-(b9)11-11-11-11-11--|
d|---0--0--0--0--0--0--0--0--0--0--0--0--0--0--0--| x2
a|--10-10-10-10-10-10-10-10-10-10-10-10-10-10-10--|
E|------------------------------------------------|

Guitar 2
e|------------------------------------------------|
b|------------------------------------------------|
g|--11/14-14-14-----7--(b9)----(b9)-(b9)-/--7--7--7--7--|
d|---x--x--x--x-----x--x-----x--x-----x--x--x--x--|
a|---(b9)12-12-12-----5--7-----7--7-----5--5--5--5--|
E|------------------------------------------------|


e|------------------------------------------------|
b|------------------------------------------------|
g|--11/14-14-14-----7--(b9)----(b9)-(b9)-/-1(b9)1(b9)1(b9)1(b9)-|
d|---x--x--x--x-----x--x-----x--x-----x--x--x--x--|
a|---(b9)12-12-12-----5--7-----7--7----17-17-17-17--|
E|------------------------------------------------|


VERSE IS THE SAME AS THE GUITAR 1 INTRO.


Pre-Chorus
e|------------------------------------------------|
b|------------------------------------------------|
g|--6-------------11-------------4-----4--4--4--4-|
d|-(7)-----------(12)-----------(5)---(5)(5)(5)(5)| Play until Chorus
a|--x--------------x-------------x-----x--x--x--x-|
E|--5-------------10-------------3-----3--3--3--3-|


Chorus
CHORDS USED IN CHORUS
e|-0-|
b|-3-|
g|-0-|
d|-4-| or normal D Chord
a|-5-|
E|(5)|

e|-0---------|
b|-1---------|
g|-2---------|
d|-2---------|
a|-0----2--3-|
E|(0)--------|

e|-0-|
b|-1-|
g|-0-|
d|-2-|
a|-3-|
E|(3)|

e|-0-|
b|-0-|
g|-0-|
d|-0-| or normal G Chord
a|-2-|
E|-3-|

Any note in parentheses means it is an optional note.
Show more