• Song:

    Unleashed Batistas Theme

  • Artist:

    Saliva

Unleashed Batistas Theme Tab by Saliva


Here.. For all you Batista/Saliva fans..

Heavy Distortion/Reverb (For all the Les Paul style users.. Turn your switch to bass tone)

E-string Fill 1: (Just use one finger for the intro)
------------------------------------|
------------------------------------|
------------------------------------|
------------------------------------|
------------------------------------|
-3-0-3-0-3-0-0-3-5-3-0-6p-0-5-0-3-0-|

Lyrics : "Yeeeeeeeeeeeeaaaaahhhhh!"

E-string Fill 2: (Now use two fingers)
------------------------------------|
------------------------------------|
------------------------------------|
------------------------------------|
-5-0-5-0-5-0-0-5-7-5-0-8p-x-7-0-5-0-|
-3-0-3-0-3-0-0-3-5-3-0-6p-x-5-0-3-0-|

I'm working on the verse.. But here's the Chorus.

-----------------------------------------|
-----------------------------------------|
-----------------------------------------|
-----------------------------------------|
-0-5-0-8-0-7-0-8-0-7-5-888-0-7-5---------|
-0-3-0-6-0-5-0-6-0-5/3-666-0-5-3---
Show more