Kiss Of Steel Tab by Samhain


Band: Samhain
Song: Kiss of Steel

tabber: John Cukras
Email: riffreaper@yahoo.com

Tuning: normal

riff 1:
E------------------------------
B------------------------------
G------------------------------
D-44444-77777------------------
A-22222-55555 x's 3--5-4-------
E--------------------3-2  x's 3

Riff 2:
E------------------------------
B------------------------------
G------------------------------
D----7-----7-------------------
A-7--5--7--5---5---4-----------
E-5-----5------3---2-----------

Riff 1 x's 2

Riff 2

Riff 1 x's 2
Show more