Homerun Tab by Sandwich


Artist: Sandwich
Song:Homerun
Album: Thanks to the moon
tabbed by:Nefas_fitz
Message:please rate

Intro(palm mute)
E|-----------------------------------------------------------|
B|-----------------------------------------------------------|
G|-----------------------------------------------------------|        
D|-5-5---7-7--10----5-5---7-7--10----------------------------|
A|-5-5---7-7--10----5-5---7-7--10----------------------------|
E|-3-3---5-5--8-----3-3---5-5--8-----------------------------|
So here we stand   nobodys speakin

E|-----------------------------------------------------------|
B|-----------------------------------------------------------|
G|-----------------------------------------------------------|        
D|-5-5---7-7--10----5-5---7-7--10----------------------------|
A|-5-5---7-7--10----5-5---7-7--10----------------------------|
E|-3-3---5-5--8-----3-3---5-5--8-----------------------------|

E|-----------------------------------------------------------|
B|-----------------------------------------------------------|
G|-----------------------------------------------------------|        
D|-5-5---7-7--10----5-5---7-7--10----------------------------|
A|-5-5---7-7--10----5-5---7-7--10----------------------------|
E|-3-3---5-5--8-----3-3---5-5--8-----------------------------|

E|-----------------------------------------------------------|
B|-----------------------------------------------------------|
G|-----------------------------------------------------------|        
D|-5-5-5-5-5-------------------------------------------------|
A|-5-5-5-5-5-------------------------------------------------|
E|-3-3-3-3-3-------------------------------------------------|
For you   I cant explain

Un lng... jaz listen to the song and get the pattern yourself
Show more