• Song:

    Tell Mama

  • Artist:

    Savoy Brown

  • Album:

    Raw Live 'n' Blue

Tell Mama
Savoy Brown
Tabbed by: avill616@yahoo.com

Intro 
G|--------------------------|------------|---------|
D|--------------------------|------------|---------|
A|-----------5-------7------|------------|-0-0-0-0-|
E|-5----5--------5--------5-|------------|---------|

G|---------------------------|---------------------------|
D|---------------------------|---------------------------|
A|-0-0----------0--0---------|-0-0----------0--0---------|
E|-----2--0-0-2-----2--0-0-2-|-----2--0-0-2-----2--0-0-2-|

Verse 
G|---------------------------|      |---------------|
D|---------------------------|      |---------------|
A|-0-0----------0--0---------|      |---------------|
E|-----2--0-0-2-----2--0-0-2-|2x    |-3~---2--1---5-|

Instrumental 
G|---------------------------|
D|---------------------------|
A|-0-0----------0--0---------|
E|-----2--0-0-2-----2--0-0-2-|

Repeat verse

Chorus
G|--------------------------|--------------------------|
D|--------------------------|--------------------------|
A|-5-5---------5--5---------|-0-0---------0--0---------|
E|-----7--5-5-7----7--5-5-7-|-----2--0-0-2----2--0-0-2-|

G|--------------------------|--------------------------------|
D|--------------------------|--------------------------------|
A|-7-7---------7--7---------|-0-0---------0--0-0-0-0-0-0-0-0-|
E|-----9--7-7-9----9--7-7-9-|-----2--0-0-2-------------------|

Repeat chorus
Repeat verse, instrumental, verse
Repeat chorus 2x
Repeat chorus 2x instrumental

Verse 
G|---------------------------|      |---------------|
D|---------------------------|      |---------------|
A|-0-0----------0--0---------|      |---------------|
E|-----2--0-0-2-----2--0-0-2-|2x    |-3~---2--1---5-|

Adlib (solo)
G|-----------|-----------------|
D|-----------|-----------------|
A|-4-0-----0-|-----------------|
E|-----2-0---|-0-2-3~--2-1-0-5-|6x

Repeat chorus 3x

Ending 
G|--------------------------|--------------------------|
D|--------------------------|--------------------------|
A|-5-5---------5--5---------|-0-0---------0--0---------|
E|-----7--5-5-7----7--5-5-7-|-----2--0-0-2----2--0-0-2-|

G|--------------------------|
D|--------------------------|
A|-7-7---------7--7---------|
E|-----9--7-7-9----9--7-7-9-|
Show more