• Song:

    Nunca Deixou De Ser

  • Artist:

    Score Hero

Intro 2x: A7M E F#M D D9 

Solo 1:
E | --------------------------------- | 
B | -2---2-3-2-------2--------------- | 
G | ---2-------4-2-4---4-2-1-2-4-2-1- | 
D | --------------------------------- | 
A | --------------------------------- | 
E | --------------------------------- | 

Solo 2:
E | ---2---2-2-2-2-2-5---5-5-5-5-5-7-5-7-5-7-5-7-5-7-5-(b9)7-5-4- | 
B | -2--------------------------------------------------------- | 
G | ----------------------------------------------------------- | 
D | ----------------------------------------------------------- | 
A | ----------------------------------------------------------- | 
E | ----------------------------------------------------------- | 

E | --2---2-2-2-2-2-5---7-4?2-0- | 
B | ---------------------------- | 
G | ---------------------------- | 
D | ---------------------------- | 
A | ---------------------------- | 
E | ---------------------------- | 


A7M                       E
Eu n?o sei o que aconteceu.
F#M                 D         D9
Quando voce se foi, meu mundo desapareceu.
A7M                     E                       F#M                D  D9
Tava tudo dando certo, com voce aqui bem perto, somente voce e eu.
A7M                  E   F#M                   D        D9
Porque foi me largar..., se o que eu fiz foi te amar, adora me fazer chorar
A7M                  E                    F#M                      D  D9
Voc? ? tudo pra mim , nunca deixou de ser, n?o tinha que ficar assim.

( A7M  E  F#M  D  D9 )

A7M                       E
Eu n?o sei o que aconteceu.
F#M                 D         D9
Quando voce se foi, meu mundo desapareceu.
A7M                     E                       F#M                D  D9
Tava tudo dando certo, com voce aqui bem perto, somente voce e eu.
A7M                  E   F#M                   D        D9
Porque foi me largar..., se o que eu fiz foi te amar, adora me fazer chorar
A7M                  E                    F#M                      D  D9
Voc? ? tudo pra mim , nunca deixou de ser, n?o tinha que ficar assim.

Refr?o 2x:
A7M          E           F#M             D               D9
Volta pra mim...! Ainda n?o acabou,n?o pode terminar assim.
A7M         E        F#M                 D             D9
Diga que sim...! Pra tudo se realizar , s? falta um sim.
F#M   D              D9
      S? falta um sim. 

(Solo 2)

(Solo 1)
Show more