• Song:

    Talvez Impossivel

  • Artist:

    Score Hero

E | --------0---------------0---------------0---------------0---------------0---------------0------ | ---------0------- | 
B | ----3-----3---3-----3-----3---3-----1-----1---0-----1-----1---0-----3-----3---3-----1-----1---1 | -----3-----3---0- | 
G | --0---0-----0-----0---0-----0-----0---0-----0-----0---0-----0-----2---2-----2-----2---2-----2-- | ---0---0-----0--- | 
D | ----------------------------------------------------------------------------------------------- | ----------------- | 
A | 3---------------2---------------0---------------0---------------------------------------------- | -3--------------- | 
E | ----------------------------------------------------------------1---------------3-------------- | ----------------- | 


C               C7m        C7              C                 Em
Passo todos os dias com voc?, fico todo momento querendo te ter,
                          Em7
Cada cinco palavras uma me lembra voc?.
C        C7m            C7              C          Em
Vivo tentando sem desistir, uma forma de te conseguir,
                   Em7
Mas tudo que eu tento n?o te faz sorrir.
C            C7m          C7            C           Em
Sei que n?o tem mais solu??o, para acalmar meu cora??o,
                       Em7
N?o tenho certeza se voc? me quer ou n?o.
C      C7        C7(9)     C7          Em                   Em7                F
J? tentei te dizer, o que sinto por voc?, mas acho que voc? quer me esquecer.

Refr?o:
             C                Em
Se voc? n?o vai ficar comigo,
               Am      F
Porque n?o me diz?
          C                  Em
Voc? n?o pode ser meu amigo,
             Am              F
? voc? o que eu sempre quis.
                C                     Em
N?o posso negar o que estou sentindo,
     Am                      (F - C )
Voc? ? o que me faz feliz.

C                  C7m      C7       C
Voc? finge que n?o liga mas vive me olhando,
Em                     Em7
Ouve o que eu digo e fica me encarando.
C               C7m      C7          C
Voc? n?o me responde, finge que n?o existo,
Em                 Em7
Mesmo assim eu n?o ligo, n?o desisto.
C            C7             C7(9)            C7
Se digo algo voc? discorda, n?o v? como isso me incomoda,
Em                       Em7                        F
Em mim a raiva brota e ao mesmo me tempo me sufoca.

Refr?o:
             C                Em
Se voc? n?o vai ficar comigo,
               Am      F
Porque n?o me diz?
          C                  Em
Voc? n?o pode ser meu amigo,
             Am              F
? voc? o que eu sempre quis.
                C                     Em
N?o posso negar o que estou sentindo,
     Am
Voc? ? o que me faz feliz.

Solo:
E | ---------------------------------------------- | --------------------------------------- | 
B | ---------------------------------------------- | ---------10-12-10---------------------- | 
G | -9h10-12-9h10-(b9)--(b9)7------(b9)7------(b9)7------- | -9h10-12----------10(b9)---7-(b9)7-------- | 
D | ----------------------10-(b9)----10-(b9)----10-10- | -----------------------10-------9h10p(b9) | 
A | ---------------------------------------------- | --------------------------------------- | 
E | ---------------------------------------------- | --------------------------------------- |
Show more