• Song:

    River Flows In You

  • Artist:

    Scott Milliorn

River Flows In You                                


                                                          Scott Milliorn
Guitar



     Q    Q    Q    Q       E  E  E  E  E  E  E  E     H        E  S S  
E||----------------------|--5--4--5--4--5-----5-----|------------------|
B||----------------------|-----------------5-----3--|--L--------L------|
G||----------------------|--------------------------|----------------6-|
D||----------------------|--------------------------|--------------7---|
A||----------------------|--------------------------|------------------|
E||----------------------|--------------------------|------------------|


  E  E  E  E  E  E  E  E     H        E  S S    E  S S S S S S S S S S S S S S  
--5--4--5--4--5-----5-----|------------------|--5--4-5-L---4-5-L-----5-L-------|
-----------------5-----3--|--L--------L------|---------------------5-----------|
--------------------------|----------------6-|-----------------------------7---|
--------------------------|--------------7---|-----------7-------7-------7---7-|
--------------------------|------------------|---------------------------------|
--------------------------|------------------|---------------------------------|


    E  E  E  E  Q.     S S    Q    S S S S Q.     S S    Q.     S S H         
---------------------------|--------------------------|----------------------|
---------------------------|--------------------------|--5-------------------|
--4g6--7--9--6--4----------|-------L-----4-6------6-7-|---------7-6-4--------|
----------7-----6------7-6-|--7--------7--------------|----------------------|
---------------------------|---------7----------------|----------------------|
---------------------------|--------------------------|----------------------|


  T    S.S S S S S S S S S S S S S S      E  E  E  E  E  E  T   S.S S  
-------5-4-5-L---4-5-L-----5-L-------|----------0--9--7--0--7-9g7-5-4-|
-------------------------5-----------|--------------------------------|
----6g14-------------------------7---|--4g6--7------------------------|
--7------------7-------7-------7---7-|--------------------------------|
-------------------------------------|--------------------------------|
-------------------------------------|--------------------------------|


   Q.     S S E  E  E  S S    E  E  E  S S Q    S S S S  
---0-----------------------|--------------------5-7-5-4-|
--10-----------------------|--5-------------------------|
------------4-6--------6-7-|--------6--7-6-4------------|
----------7---------7------|----------------------------|
-----------------7---------|-----7----------------------|
---------------------------|----------------------------|


  S S S S S S S S S S S S S S S S    S S S  S  S S S S E  E  S S S S  
--5-------5-7-5-4-5-------5-7-5-4-|--5-7-9-10-12-9-7-5-4-----5-7-5-4-|
------5---------------5-----------|-----------------------0----------|
----------------------------------|----------------------------------|
----7---7-----------7---7---------|----------------------------------|
----------------------------------|----------------------------------|
----------------------------------|----------------------------------|


  S S S S S S S S S S S S S S S S    S S S  S  S S S S E  E  S T T S S  
--5-------5-7-5-4-5-------5-7-5-4-|--5-7-9-10-12-9-7-5-4-----5-5-7-5-4-|
------5---------------7-----------|-----------------------0------------|
----------------------------------|------------------------------------|
----7---7-----------7---7---------|------------------------------------|
----------------------------------|------------------------------------|
----------------------------------|------------------------------------|


  S S S S S. T S S S S S S S. T S S    S S S  S  S S S S E  E  S. T S S  
--5-------5--7-5-4-5-------5--7-5-4-|--5-7-9-10-12-9-7-5-4-----5--7-5-4-|
------5----------------5------------|-----------------------0-----------|
------------------------------------|-----------------------------------|
----7---7------------7---7----------|-----------------------------------|
------------------------------------|-----------------------------------|
------------------------------------|-----------------------------------|


  S S S S S. T S S S S S S S S S S    S S S  S  S S S S E  E  E  Q    S S  
--5-------5--7-5-4-5-------5-7-5-4-|--5-7-9-10-12-9-7-5-4-----------------|
------5----------------5-----------|--------------------------------------|
-----------------------------------|-----------------------4------------6-|
----7---7------------7---7---------|--------------------------6-------7---|
-----------------------------------|-----------------------------7--------|
-----------------------------------|--------------------------------------|


  E  S S S S S S S S S S S S S S      E  E  E  E  Q.     S S  
--5--4-5-L---4-5-L-----5-L-------|---------------------------|
---------------------5-----------|---------------------------|
-----------------------------7---|--4g6--7--9--6--4----------|
-----------7-------7-------7---7-|----------7-----6------7-6-|
---------------------------------|---------------------------|
---------------------------------|---------------------------|


  Q    S S S S S S S S S S S S    S S S S S S S S S S S S E  E   
-------------------------------|--------------------------------|
-------------------------------|--5-------5---------------------|
-------L-----4-6-----4-6---6-7-|------6-7-----7-6-4---7-6-4-----|
--7----L---7-------7-----------|-----------------------------6--|
--7------7-------7-------7-----|----7-------7-------7-----------|
-------------------------------|--------------------------------|


     E  S S S S S S S S S S S S S S      E  E  E  E  E  E  T   S.S S  
-----5--4-5-L---4-5-L---0-5-L-------|----------0--9--7--0--7-9g7-5-4-|
--2g10------------------------------|--------------------------------|
--------------------------------7---|--4g6--7------------------------|
--------------7-------7-------7---7-|--------------------------------|
------------------------------------|--------------------------------|
------------------------------------|--------------------------------|


   Q.     S S S S S S S S S S    S S S S S S S S S S S S S S S S  
---0--------------------------|--------------------------5-7-5-4-|
--10--------------------------|--5-------5-----------------------|
------------4-6-----4-6---6-7-|------6-7-----7-6-4-----4---------|
----------7-------7-----------|----------------------6-----------|
----------------7-------7-----|----4-------7-------7-------------|
------------------------------|----------------------------------|


    S S S S S T T S S S S S S S T T S S  
--4g5-------5-5-7-5-4-5-------5-5-7-5-4-|
--------5-----------------5-------------|
----------------------------------------|
------7---7-------------7---7-----------|
----------------------------------------|
----------------------------------------|


  S S S  S  S S X   T.S S S S S S T T S S  
--5-7-9-10-12-9-7-9g7-5-4---0---5-5-7-5-4-|
--------------------------0---0-----------|
------------------------------------------|
------------------------------------------|
------------------------------------------|
------------------------------------------|


    S S S S S T T S S S S S S S T T S S  
--4g5-------5-5-7-5-4-5-------5-5-7-5-4-|
--------5-----------------5-------------|
----------------------------------------|
------7---7-------------7---7-----------|
----------------------------------------|
----------------------------------------|


  S S S  S  S S X   T.S S S S S S T T S S    S S S S S S S S S S S S S T T S S  
--5-7-9-10-12-9-7-9g7-5-4---0---5-5-7-5-4-|--5-------5-7-5-4-5-------5-5-7-5-4-|
--------------------------0---0-----------|------5---------------5-------------|
------------------------------------------|------------------------------------|
------------------------------------------|----7---7-----------7---7-----------|
------------------------------------------|------------------------------------|
------------------------------------------|------------------------------------|


  S S S  S  S S S S E  E  S T T S S    S S S S S T T S S S S S S S T T S S  
--5-7-9-10-12-9-7-5-4-----5-5-7-5-4-|--5-------5-5-7-5-4-5-------5-5-7-5-4-|
-----------------------0------------|------5-----------------5-------------|
------------------------------------|--------------------------------------|
------------------------------------|----7---7-------------7---7-----------|
------------------------------------|--------------------------------------|
------------------------------------|--------------------------------------|


  S S S  S  S S S S E  E  E  E     T    S.E  E  E  E  E  E  E   
--5-7-9-10-12-9-7-5-4-----------|---------4--5--4--5--0--5-----|
--------------------------------|------------------2--------3--|
-----------------------4--------|----6g14----------------------|
--------------------------6-----|--7---------------------------|
-----------------------------7--|------------------------------|
--------------------------------|------------------------------|


                            ^                         
  E  E  E  E  Q    E  E     Q    E  S S E  E  E  S S  
-------------------------|---------------------------|
--------5----------------|---------------------------|
--6--7-----6--4----------|--2---------4-6--------6-7-|
-------------------7--6--|--2-------7---------7------|
-------------------------|--4----7---------7---------|
-------------------------|---------------------------|


                                         ^            
  E  E  E  S S Q.     S S    E  E  E  E  E  E  E  E   
--------------------------|--5--4--5--4--5-----5-----|
--5-----------------------|--------------5--5--------|
--------6--7-6-4--------6-|--------------6--------7--|
----------------------7---|--------------------------|
-----7--------------------|--------------------------|
--------------------------|--------------------------|


    E  E  E  E  Q.     S S    Q.     S S E  E  E  S S  
----------0--9--7----------|--------------------------|
----------------5----------|--------------------------|
--4g6--7-------------------|-----------4-6--------6-7-|
-----------------------7-6-|--7------7---------7------|
---------------------------|--7-------------7---------|
---------------------------|--------------------------|


  E  E  E  S S Q    Q       E  E  E  E  H          
-------------------------|-----------------------||
--5----------------------|-----------------------||
-----------7-6-4---------|--------------2--------||
--------7----------------|--7--------4-----------||
-----7--------------7----|--------4--------------||
-------------------------|-----5-----------------||




Duration Legend
---------------
W - whole
H - half
Q - quarter
E - 8th
S - 16th
T - 32nd
X - 64th
. - note dotted
|-n-|  - n-tuplets


Tablature Legend
----------------
L - tied note
x - dead note
g - grace note
(n) - ghost note
> - accentuded note
NH - natural harmonic
AH - artificial harmonic
TH - tapped harmonic
SH - semi harmonic
PH - pitch harmonic
h - hammer on
p - pull off
b - bend
br - bendRelease
pb - preBend
pbr - preBendRelease
brb - bendReleaseBend

/ - tremolo bar dip

 - tremolo bar dive
-/n - tremolo bar Release up
/n\ - tremolo bar inverted dip
/n - tremolo bar return
-
 - tremolo bar Release down
S - shift slide
s - legato slide
/ -  slide into from below or out of upwards
\ -  slide into from above or out of downwards
~ - vibrato
W - wide vibrato
tr - trill
TP - tremolo picking
T - tapping
S - slap
P - pop
< - fade in
^ - brush up
v - brush down
Show more