Intro: (w/ wicked guitar part)
 |------------------------------------------------------------------------|
 |------------------------------------------------------------------------|
 |------------------------------------------------------------------------|
 |----3--3--3--3---5--5--5--5 ---0--0--0--0--0--0--0--0---3--3--3--3------|

Continue on to the next line. No more room on that side. :P

 |---------------------------------------------------------------------------|
 |---------------------------------------------------------------------------|
 |---------------------------------------------------------------------------|
 |---5--5--5--5---0--0--0--0--0--0--0--0---3--3--3--3---5--5--5--5-----------|

Repeat 4x. The end of Intro look like this:
 |------------------------------------------------------------------------|
 |------------------------------------------------------------------------|
 |-------------------------------------------3--3--3--3-------------------|
 |----0--0--0--0--0--0--0--0 ---3--3--3--3--------------------------------|

Verse: (Repeat 4x)
 |---------------------------------------------------------------------------|
 |---------------------------------------------------------------------------|
 |---------------------------------------------------------------------------|
 |--0--0--0--0--0--0--0--0---3--3--3--3---5--5--5--5-------------------------|


Chorus: (Is actually different!) Repeat 2x
 |---------------------------------------------------------------------------------|
 |---------------------------------------------------------------------------------|
 |-----------------------------------------------------3--3--3--3--3--3--3--3------|
 |--0--0--0--0--0--0--0--0---5--5--5--5--5--5--5--5--------------------------------|

 |---------------------------|
 |---------------------------|
 |---------------2--2--2--2--|
 |--3--3--3--3---------------|

For the end of the chorus: (Repeat 2x)

 |--------------------------------------------------------|
 |--------------------------------------------------------|
 |--------------------------------------------2--2--2-----|
 |--0--0--0--0--0--0--0--0---3--3--3--3--3----------------|

Beginning of Interlude:
 |-------------------------------------------------------|
 |-------------------------------------------------------|
 |------------------2--2--2------------------------------|
 |--3--3--3--3--3-------------3--3--3--3---5--5--5--5----|

Interlude: (Repeat 2x)
 |--------------------------------------------------------|
 |--------------------------------------------------------|
 |--------------------------------------------------------|
 |--0--0--0--0--0--0--0--0---3--3--3--3---5--5--5--5------|

 End of Interlude:
 |--------------------------------------------------------|
 |--------------------------------------------------------|
 |------------------------------------------3--3--3--3----|
 |---0--0--0--0--0--0--0--0---3--3--3--3------------------|



That's it. Have fun.
Show more