• Song:

    Alles Gute Kommt Von Innen

  • Artist:

    Senore Matze Rossi

-------------------------------------------------------------------------------
               Senore Matze Rossi  -  Alles Gute (kommt von Innen)
-------------------------------------------------------------------------------
Tabbed by: gobbo42
Email: ugtabs@gernox.de


e|---------------------------------------------------------------------------|
B|---------------------------------------------------------------------------|
G|----------2-0---------0---0------------------------------------------------|
D|--------0-----0-2-0--------------------------------------------------------|
A|--0-2-3-------------3---3--------------------------------------------------|
E|---------------------------------------------------------------------------|


 Am
Es wird gefeiert! Ich glaube das gilt mir,
 F
fast alle sind gekommen, nur ich bin nicht ganz hier
 Am
Ein neues Jahr soll anfangen, mit Pauken und Trompeten,
 F
mit dem alten war ich noch nicht fertig, dann werde ich mich wohl verspäten


 C
Das ist meine Sehnsucht 
 Am 
und das sind meine Träume,
 C
das ist meine Hoffnung 
 Am
und die braucht neue Beine
 F

e|--0--------|
B|----1------|
G|------2----|
D|-----------|
A|-----------|
E|-----------|
 
 Am
Ich versuch mich zu erinnern, wo wollt ich hin? Wo kam ich her?
 F
und bei der Vielfalt aller Möglichkeiten fällt das Treffen der Entscheidung schwer
 Am 
Warum muss ich immer haben wollen, was ich nicht haben kann?
 F
Das ist die Büchse der Pandora, mein Fluch, es treibt mich auch voran 


 C
Das sind meine Freunde 
 Am
und das sind meine Lieben,
 C
das ist mein Zuhause 
 Am
und das hier ist von mir geblieben
 F

e|--0--------|
B|----1------|
G|------2----|
D|-----------|
A|-----------|
E|-----------|
 
 Am            G          F          C
Und du sagst, alles Gute kommt von innen,
 Am            G          F          C
ich denke das Beste muss aber erst zusammen
 Am         G       F             C
und dieses Fieber wird mich noch umbringen,
 Am            G                F        G        Am
nein jetzt noch nicht, aber es will und wird und kann


 Am
Wie viele wussten vor mir schon, diese Welt ist noch nicht bereit?
 F
Dafür weiß ich, alles ist gut, solange du heut bei mir bleibst
 Am 
Mir wird so schwindelig, wenn du meine Wange küsst 
 F 
und die Lieder werden wahr, ob ich das will oder nicht


 C
Das ist meine Sehnsucht 
 Am 
und das sind meine Träume,
 C
das ist meine Hoffnung 
 Am
und die braucht neue Beine
 C
Das sind meine Freunde 
 Am
und das sind meine Lieben,
 C
das ist mein Zuhause 
 Am
und das hier ist von mir geblieben
 F

e|--0--------|
B|----1------|
G|------2----|
D|-----------|
A|-----------|
E|-----------|
 
 Am            G          F          C
Und du sagst, alles Gute kommt von innen,
 Am            G          F          C
ich denke das Beste muss aber erst zusammen
 Am         G       F             C
und dieses Fieber wird mich noch umbringen,
 Am            G                F        G        Am
nein jetzt noch nicht, aber es will und wird und kann



F-Chord
e|---|---|---|
B|-O-|---|---|
G|---|-O-|---|
D|---|---|-O-|
A|---|---|---|
E|---|---|---|
Show more