• Song:

    Handguns & Second Chances

  • Artist:

    Senses Fail

Senses Fail - Handguns & Second Chances
Tabbed By: Brian (rydoken00x@yahoo.com)
Drop D tuning

/ - slide
... - palm mute
h - hammer-on
p - pull-off

8x
6x - mute after strumming
6x

9
x - mute string
6

Guitar 1's Parts
----------------
Intro:                  (4x)                     
e|-----------------------|----------------------------------------
B|9----9----9----9--9-9x-|9-9-9-9-9x-9-9-9-9-9x-9-9-9x-9-9-9-9-9x
G|8----8----8----8--8-8x-|8-8-8-8-8x-8-8-8-8-8x-8-8-8x-8-8-8-8-8x-
D|6----6----6----6--6-6x-|6-6-6-6-6x-6-6-6-6-6x-6-6-6x-6-6-6-6-6x-
A|-----------------------|----------------------------------------
D|-----------------------|----------------------------------------

Intro cont.
e|------------------
B|9-9-9-9-9x-9-9-9--
G|8-8-8-8-8x-8-8-8--
D|6-6-6-6-6x-6-6-6--
A|------------------
D|------------------
             . .

Verse: "To kill..." (come in on 3rd time) (2x)
e|-----------------------------
B|9-9----9-9-9-9---------------
G|8-8----8-8-8-8---------------
D|6-6----6-6-6-6--6-6-6-3-3-3--
A|----------------6-6-6-3-3-3--
D|----------------6-6-6-3-3-3--
         . .      . .   . . 

Chorus: "And now, I know..." (2x)
e|----------------------------------p----------------------------------
B|9-----9-----11---9-----9-----11---a9-----9-----11-----11------9h11p9-
G|--8-----8------8---8-----8------8-u--8-----8------8------8-----------
D|----6-----6----------6-----6------s----6-----6------6-------6--------
A|----------------------------------e----------------------------------
D|---------------------------------------------------------------------

verse(pick slide on 2nd time)
chorus

Bridge: "And I'm, too scared..." (come in on 2nd time)
                                              (2x)
e|--------------------------------------------|--------------------
B|-------------------------11-----11-----11---|9-9x-9-9x-9-9x-9-9x-
G|8-6-5---8-6-5-----8-6-5------8------8-----8-|x-x--x-x--x-x--x-x--
D|------6-------6/8-------6------6------6-----|6-6x-6-6x-6-6x-6-6x-
A|--------------------------------------------|--------------------
D|--------------------------------------------|--------------------

Bridge cont.
e|------------------------------------------------------------
B|8-8-8-8-8-9-9x-9-9x-9-9x-9-9x-8-8-8-8-8-9-9x-9-9x-9-9x-9-9x-
G|x-x-x-x-x-x-x--x-x--x-x--x-x--x-x-x-x-x-x-x--x-x--x-x--x-x--
D|5-5-5-5-5-6-6x-6-6x-6-6x-6-6x-5-5-5-5-5-6-6x-6-6x-6-6x-6-6x-
A|------------------------------------------------------------
D|------------------------------------------------------------

Bridge cont.
e|-----------------------------------------
B|8-8-8-8-8/13-13-13-13-13-11-11-11-11-11--
G|x-x-x-x-x--x--x--x--x--x--x--x--x--x--x--
D|5-5-5-5-5/10-10-10-10-10--8--8--8--8--8--
A|-----------------------------------------
D|-----------------------------------------

Interlude(same as 2nd part of bridge, just 1x though)
chorus

End on:
e|--------
B|9-9-9x--
G|x-x-x---
D|6-6-6x--
A|--------
D|--------


Guitar 2's Parts
----------------
Intro:              (4x)
e|-----------------|-----------------------------------------
B|-----------------|-----------------------------------------
G|-----6---------6-|-----------------------------6-6-6-6-6x--
D|3----6----3----6-|3-3-3-3-3x-3-3-3-3-3x-3-3-3x-6-6-6-6-6x--
A|3----4----3----4-|3-3-3-3-3x-3-3-3-3-3x-3-3-3x-4-4-4-4-4x--
D|3---------3------|3-3-3-3-3x-3-3-3-3-3x-3-3-3x-------------

Intro cont.
e|------------------
B|------------------
G|6-6-6-6-6x-6-6-6--
D|6-6-6-6-6x-6-6-6--
A|4-4-4-4-4x-4-4-4--
D|------------------
             . .

Verse: "To kill..." (4x)
e|---------------------------
B|---------------------------
G|-------6-6-----------------
D|3-3----6-6----6-6-1-1-3-3--
A|3-3----4-4----6-6-1-1-3-3--
D|3-3-----------6-6-1-1-3-3--
  . .    . .    . . . . . .

Chorus: "And now, I know..." (2x)
e|--------------------p-----------------------
B|--------------------a-----------------------
G|--------------------u6-6-6-6-6--------------
D|3-3-3-3-3-6-6-6-6-6-s6-6-6-6-6-6-6-6-1-1-1--
A|3-3-3-3-3-6-6-6-6-6-e4-4-4-4-4-6-6-6-1-1-1--
D|3-3-3-3-3-6-6-6-6-6------------6-6-6-1-1-1--

verse
chorus

Bridge: "And I'm, too scared..."
 (2x)                 (2x)                                                        
e|--------------------|------------------------------------------
B|--------------------|------------------------------------------
G|----------6---------|------------------------------------------
D|3----6----6----6-1--|3-3-3-3-3x-3-3x-3-3x-3-3-3-3-3-6-6-6-6-6x-
A|3----6----4----6-1--|3-3-3-3-3x-3-3x-3-3x-3-3-3-3-3-6-6-6-6-6x-
D|3----6---------6-1--|3-3-3-3-3x-3-3x-3-3x-3-3-3-3-3-6-6-6-6-6x-

Bridge cont.
e|--------------------------------------------------------------
B|--------------------------------------------------------------
G|--------------------6-6-6-6-6x-6-6x-6-6x-6-6-6-6-6------------
D|6-6x-6-6x-6-6-6-6-6-6-6-6-6-6x-6-6x-6-6x-6-6-6-6-6-6-6-6-6-6x-
A|6-6x-6-6x-6-6-6-6-6-4-4-4-4-4x-4-4x-4-4x-4-4-4-4-4-6-6-6-6-6x-
D|6-6x-6-6x-6-6-6-6-6--------------------------------6-6-6-6-6x-

Bridge cont.
e|------------
B|------------
G|------------
D|1-1-1-1-1x--
A|1-1-1-1-1x--
D|1-1-1-1-1x--

chorus

End on:
e|--------
B|--------
G|--------
D|3-3-3x--
A|3-3-3x--
D|3-3-3x--
Show more