• Song:

    Nj Falls Into The Atlantic

  • Artist:

    Senses Fail

  • Album:

    Let If Enfold You

Senses Fail - NJ Falls Into the Atlantic
Drop -D Tuning (D A D G)

Intro 2x (Bass comes in at :08 secs.)

G|---------|----------|----------|----------||-------||
D|---------|----------|----------|----------||-------||
A|---------|----------|----------|----------||-------||
D|44444446-|-77777777-|-22222222-|-11111111-||-2~----||

Verse (part 1) 2x

G|----------|----------|----------|----------|
D|----------|----------|----------|----------|
A|----------|----------|----------|----------|
D|-44444444-|-44444444-|-22222222-|-22222222-|

Verse (part 2) 2x

G|----------|----------|----------|----------|
D|----------|----------|----------|----------|
A|----------|----------|-00000000-|----------|
D|-44444444-|-22222222-|----------|-22222222-|

Chorus 2x

G|----------|----------|----------|----------|
D|----------|----------|----------|----------|
A|----------|----------|----------|----------|
D|-44444446-|-77777777-|-22222222-|-11111111-|

Verse (part 1) 2x

G|----------|----------|----------|----------|
D|----------|----------|----------|----------|
A|----------|----------|----------|----------|
D|-44444444-|-44444444-|-22222222-|-22222222-|

Verse (part 2) 2x

G|----------|----------|----------|----------|
D|----------|----------|----------|----------|
A|----------|----------|-00000000-|----------|
D|-44444444-|-22222222-|----------|-22222222-|

Chorus 2x

G|----------|----------|----------|----------|
D|----------|----------|----------|----------|
A|----------|----------|----------|----------|
D|-44444446-|-77777777-|-22222222-|-11111111-|

Bridge

G|------|------|------|------|------|-----|
D|------|------|------|------|-9h11-|-----|
A|-0~---|------|------|-0----|------|-----|
D|------|------|-2~---|---2--|------|-----|
G|------|------|------------|------------|------------|------------|
D|------|------|------------|------------|------------|------------|
A|------|------|-444-444-44-|-000-000-00-|------------|------------|
D|-2~---|--4-6-|------------|------------|-222-222-22-|-222-222-22-|

G|------------|------------|------------|--------|
D|------------|------------|------------|--------|
A|-444-444-44-|-000-000-00-|------------|--------|
D|------------|------------|-222-222-22-|-4-6-2--|

G|------------|------------|------------|--------|
D|------------|------------|------------|--------|
A|-444-444-44-|-000-000-00-|------------|--------|
D|------------|------------|-222-222-22-|-2-4-6--|

G|------------|------------|----------|-------|
D|------------|------------|----------|-------|
A|-444-444-44-|-000-000-00-|----------|-------|
D|------------|------------|-22222222-|-2-----|

2x
G|---------------|----------------|
D|---------------|----------------|
A|-44444-00-000-|----------------|
D|---------------|-22222-22-44-66-|

2x
G|------------------|---------|----------|
D|------------------|---------|----------|
A|-4444444444—000---|---------|----------|
D|----------------6|-2222222-|-22222222-|

Outro 2x

G|-------------|----------------|--------------|------------------|
D|-------------|----------------|--------------|------------------|
A|-44444-00-000|----------------|-44444-00-000-|-77777777-66666-2-|
D|-------------|-22222-22-44-66-|--------------|------------------|

G|-----|-----|--------||
D|-----|-----|--------||
A|-4~--|-0~--|--------||
D|-----|-----|-2~---2-||
Show more