• Song:

    One Eight Seven

  • Artist:

    Senses Fail

  • Album:

    Live at Cervantes Theat...

tabber: brian baile
band: senses fail
song: one eight seven
ok this tab is 100% right, most of all the other tabs for this song are missing small parts.
there are not enough tabs for senses fail on mxtabs, lets get more coming!

guitar one

intro (x14)
e|--------0----------------0---------------0---------------0---------------
B|------3---3---3-------3----3---------3----3---3-----3------3----3---------------
G|--22---2----2-----44---4----2h4---00--0-----0----00----0------0----------
D|----------------------------------------------------------------------------- 
A|----------------------------------------------------------------------------- 
D|----------------------------------------------------------------------------- 

verse 1 (x4) palm mute when needed
e|-----------------------------------------------------------------------------
B|-----------------------------------------------------------------------------
G|-----------------------------------------------------------------------------
D|--0-000000-999999-7/9-5555555555-5-55-5--------------------------------------
A|--0-000000-999999-7/9-5555555555-5-55-5--------------------------------------
D|--0-000000-999999-7/9-5555555555-5-55-5-------------------------------------- 
chorus 2x
e|------------------------------------------------------------------------
B|------------------------------------------------------------------------
G|-----------------------------------------------------------------------
D|--9999999999-5555555555-0000000000-4444444444-------------
A|--9999999999-5555555555-0000000000-4444444444------------
D|--9999999999-5555555555-0000000000-4444444444-------------

intro 1x

verse 2
e|----------------------------------------------
B|------------------------------------------------
G|----------------------------------------------                  
D|--0-000000-9999-9--53---------------------
A|--0-000000-9999-9--53---------------------   
D|--0-000000-9999-9--53----pause----then play verse one 3 times
chorus 2 same as first
build up (all p.m. but last 2 chords)

e|----------------------------------------------------------------- 
B|-----------------------------------------------------------------
G|----------------------------------------------------------------
D|--444444444444-44------------------------------------------
A|--444444444444-44------------------------------------------
D|--444444444444-44-------------------------------------------

outro: same as chorus, but repeated many more times

guitar 2 
intro (x8) comes in after 4th measure

e|--12--12---12---12---10--10--10---10--9h10p9--9---9---9---9---9---9---9------ 
B|----10---10---10---10---10--10--10--10------10--10--10--10--10--10--10--10--- 
G|-----------------------------------------------------------------------------
D|----------------------------------------------------------------------------- 
A|----------------------------------------------------------------------------- 
D|----------------------------------------------------------------------------- 

verse 1: just guitar one, or u can just play guitar one’s part 
chorus 2x
e|-----------------------------------------------------------------------
B|-----------------------------------------------------------------------
G|----7-7-7-7-7-7--6--2-2-2-2-2-2-----7---9---11---12---9---7---6---7---
D|----x-x-x-x-x-x--x--x-x-x-x-x-x-----x---x----x----x---x---x---x---x---
A|----5-5-5-5-5-5--4--0-0-0-0-0-0-----5---7----9---10---7---5---4---5--
D|----------------------------------------------------------------------------

verse 2: listen for when it comes in

e|------------------------------------------------------------------------- 
B|-------------------------------------------------------------------------
G|--------7----9--7---7-------------7-----9-7---7------------------------ 
D|----7-7--7--------7----------5-5----5-------5---------------------------     
A|----------------------------------------------------------------------------- 
D|----------------------------------------------------------------------------


outro

e|--------------------------------------------------------------------------- 
B|---------------------------------------------------------------------------
G|-11-11-11-11-11-11---6-6-6-6-7-7-7-7---7-9-11-12--6-7-9-7-----(x2)
D|--x--x--x--x--x--x---x-x-x-x-x-x-x-x---x-x--x--x--x-x-x-x---------
A|--9--9--9--9--9--9---4-4-4-4-5-5-5-5---5-7--9--10-4-5-7-5---------
D|--------------------------------------------------------------------------- 

e|--------------------------------------------------------------------------
B|-------------------------------------------------------------------------
G|-11-11-11-11---12---14---6-6-6-6---7-9-7-9-11--12-6-7-9-7----(x2)
D|--x--x--x--x---x----x----x-x-x-x---x-x-x-x--x---x-x-x-x-x----
A|--9--9--9--9---10---12---4-4-4-4---5-7-5-7--9--10-4-5-7-5----
D|----------------------------------------------------------------------------- 

e|------------------------------------------------------------------- 
B|------------------------------------------------------------------ 
G|--14--14--12--11--9---7-7-7-7-7-7-----------------(x4)--------
D|---x---x---x---x--x---x-x-x-x-x-x---------------------------
A|--12--12--10---9--7---5-5-5-5-5-5----------------------------
D|-------------------------------------------------------------------   

e|-------------------------------------------------------------------- 
B|-------------------------------------------------------------------
G|--11-11-11-11-11-11--12-12-12-12-12-12---------------(x4)
D|---x--x--x--x--x--x--x--x--x--x--x---x--------------------------
A|---9--9--9--9--9--9--10-10-10-10-10-10--------------------------
D|-----------------------------------------------------------------------

end on
e|--------------------- 
B|---------------------
G|---11---------------
D|----x----------------
A|----9---------------
D|---------------------

well there you go, the best you’ll see for this song
Show more