• Song:

    One Eight Seven

  • Artist:

    Senses Fail

  • Album:

    Live at Cervantes Theat...

Intro
e|---------0-----------------------------------------------------------------|
B|-----3-----3---3-----------------------------------------------------------|
G|-2-2---2-----2-------------------------------------------------------------|
D|---------------------------------------------------------------------------|
A|---------------------------------------------------------------------------|
D|---------------------------------------------------------------------------|

e|---------0-----------------------------------------------------------------|
B|-----3-----3---------------------------------------------------------------|
G|-4-4---4-----2/4-----------------------------------------------------------|
D|---------------------------------------------------------------------------|
A|---------------------------------------------------------------------------|
D|---------------------------------------------------------------------------|

e|---------0------------------0----------------------------------------------|
B|-----3-----3---3--------3-----3---3----------------------------------------|
G|-0-0---0-----0------0-0---0-----0------------------------------------------|
D|---------------------------------------------------------------------------|
A|---------------------------------------------------------------------------|
D|---------------------------------------------------------------------------|

(One gaping hole, shot through my heart...)
e:------------------------------------------------------------------
B:------------------------------------------------------------------
G:------------------------------------------------------------------
D:-0-0-0-0-0-0-0--9-9-9-9-9-9-9--7-9-5-5-5-5-5-5-5--5-5-5-5-5-5-----
A:-0-0-0-0-0-0-0--9-9-9-9-9-9-9--7-9-5-5-5-5-5-5-5--5-5-5-5-5-5-----
D:-0-0-0-0-0-0-0--9-9-9-9-9-9-9--7-9-5-5-5-5-5-5-5--5-5-5-5-5-5-----
   P.M  .............................................  ...   ...

Chorus

e:------------------------------------------------------------------
B:------------------------------------------------------------------
G:------------------------------------------------------------------
D:-9-9-9-9-9-9-9--5-5-5-5-5-5-5--0-0-0-0-0-0-0--7-7-7-7-7-7-7-------
A:-9-9-9-9-9-9-9--5-5-5-5-5-5-5--0-0-0-0-0-0-0--7-7-7-7-7-7-7-------
D:-9-9-9-9-9-9-9--5-5-5-5-5-5-5--0-0-0-0-0-0-0--7-7-7-7-7-7-7-------

Bridge:
e:-------------------------------------------------------------------
B:-------------------------------------------------------------------
G:----------------------------7-7-7-7//9-9-9-9//11-11-11//12-12-12-12
D:--999999999999-555555555555-x-x-x-x//x-x-x-x//-x--x--x//-x--x--x--x
A:--999999999999-555555555555-5-5-5-5//7-7-7-7//-9--9--9//10-10-10-10
D:--999999999999-555555555555----------------------------------------

e:-----------------
B:-----------------
G:-----------------
D:---444444444444--
A:---444444444444--
D:---444444444444--

e:-------------------------------------------------------------------
B:-------------------------------------------------------------------
G:--121212121212-1111-9-9-9-9-7-7-7-7-6-6-6-6-6-6-7-7-7-7-7-7-7------
D:--xxxxxxxxxxxx-xxxx-x-x-x-x-x-x-x-x-x-x-x-x-x-x-x-x-x-x-x-x-x------
A:--101010101010-9999-7-7-7-7-5-5-5-5-4-4-4-4-4-4-5-5-5-5-5-5-5------
D:-------------------------------------------------------------------

Ending:

e:-------------------------------------------------------------------
B:-------------------------------------------------------------------
G:11-11-11-11/12-12-12-11-11-----------------------------------------
D:-x--x--x--x/xx-xx-xx--x--x-----------------------------------------
A:-9--9--9--9/10-10-10--9--9-----------------------------------------
D:-------------------------------------------------------------------
Show more