• Song:

    One Eight Seven

  • Artist:

    Senses Fail

  • Album:

    Live at Cervantes Theat...

Tuning DADGBe

Intro guitar 1
e|---------------------------------------------------------------------------|
B|---------------------------------------------------------------------------|
G|--7-7---8-8--10-10--10-10--------------------------------------------------|
D|--5-5---8-8--8--8---7--7---------------------------------------------------|
A|--5-5---6-6--8--8---7--7---------------------------------------------------|
D|--5-5--------8--8---7--7---------------------------------------------------|

e|--8-6---6---8-6---6---10-6-10-8-6-5---8-6---6---8-6---6---10-6-10-8-6-5-6~-|
B|------6---------6-------------------------6---------6----------------------|
G|---------------------------------------------------------------------------|
D|---------------------------------------------------------------------------|
A|---------------------------------------------------------------------------|
D|---------------------------------------------------------------------------|

Verse
e|---------------------------------------------------------------------------|
B|---------------------------------------------------------------------------|
G|--7-7---8-8--10-10--10-10--------------------------------------------------|
D|--5-5---8-8--8--8---8--8---------------------------------------------------|
A|--5-5---6-6--8--8---8--8---------------------------------------------------|
D|--5-5--------8--8---8--8---------------------------------------------------|

e|--10--8--6-----------------------------------------------------------------|
B|--6---6--6-----------------------------------------------------------------|
G|---------------------------------------------------------------------------|
D|---------------------------------------------------------------------------|
A|---------------------------------------------------------------------------|
D|---------------------------------------------------------------------------|

Pre Chorus
e|---------------------------------------------------------------------------|
B|---------------------------------------------------------------------------|
G|--7--5--3--5---------------------------------------------------------------|
D|--5--3--1--3---------------------------------------------------------------|
A|--5--3--1--3---------------------------------------------------------------|
D|--5--3--1--3---------------------------------------------------------------|

e|--6-----6-----6---6-----6-----6---6-----6-----6---8-----10-----11----------|
B|----6-6---6-6---6---6-6---6-6---6---6-6---6-6---6---6-6----6-6----66-------|
G|---------------------------------------------------------------------------|
D|---------------------------------------------------------------------------|
A|---------------------------------------------------------------------------|
D|---------------------------------------------------------------------------|

Chorus
e|---------------------------------------------------------------------------|
B|---------------------------------------------------------------------------|
G|--10--8-7--7--5--3---------------------------------------------------------|
D|--8---8-8--5--3--1---------------------------------------------------------|
A|--8---6-6--5--3--1---------------------------------------------------------|
D|--8--------5--3--1---------------------------------------------------------|

Verse 2x
Pre Chorus 1x
Chorus 2x
Prechorus 2x 

Breakdown
e|---------------------------------------------------------------------------|
B|---------------------------------------------------------------------------|
G|--10-3--7--3---------------------------------------------------------------|
D|--8--1--5--1---------------------------------------------------------------|
A|--8--1--5--1---------------------------------------------------------------|
E|--8--1--5--1---------------------------------------------------------------|

End Note
e|---------------------------------------------------------------------------|
B|---------------------------------------------------------------------------|
G|----3----------------------------------------------------------------------|
D|----1----------------------------------------------------------------------|
A|----1----------------------------------------------------------------------|
D|----1----------------------------------------------------------------------|
Show more