• Song:

    Rum Is For Drinking, Not Burning

  • Artist:

    Senses Fail

  • Album:

    Rum Is For Drinking Not...

MX Tabs
http://www.mxtabs.net/
Song: Rum Is For Drinking Not Burning
Artist: Senses Fail
Tabbed by: germpunk6/ German
Tuning: drop D/ DADgbe

This is only rhythm guitar, but I’m working on lead.
…. = palm mute
~ = let it ring out

Guitar 1(rthym)
         INTRO
e[------------------------------------------------------------------------]
b[------------------------------------------------------------------------]
g[------------------------------------------------------------------------]
D[-----00000000---8888---10101010---00000000---8888---10101010---0 ~ -----]
A[-----00000000---8888---10101010---00000000---8888---10101010---0 ~ -----]                                  D[-----00000000---8888---10101010---00000000---8888---10101010---0 ~ -----]
                                                                           

         VERSE 1 
e[---------------------------------------------------]
b[---------------------------------------------------]
g[---------------------------------------------------]
D[-----0 ~ ---88---33---22---0 ~ ---88---33---22-----]
A[-----0 ~ ---88---33---33---0 ~ ---88---33---33-----]
D[-----0 ~ ---88---33---22---0 ~ ---88---33---22-----]
                                         ..   ..

         PRE - CHORUS 
e[-------------------------------------------------]
b[-------------------------------------------------]
g[-------------------------------------------------]
D[-----0-00000-0-0-0-0---8-88888-8-8-8-8---3-3-----] 2X
A[-----0-00000-0-0-0-0---8-88888-8-8-8-8---3-2-----]
D[-----0-00000-0-0-0-0---8-88888-8-8-8-8---3-3-----]
         .....   .   .     .....   .   .           
	
         CHORUS 
e[---------------------------------------------------]
b[---------------------------------------------------]
g[---------------------------------------------------]
D[-----00000000---88888888---33333333---22222222-----]
A[-----00000000---88888888---33333333---33333333-----]
D[-----00000000---88888888---33333333---22222222-----]

         VERSE 2
e[---------------------------------------------------]
b[---------------------------------------------------]
g[---------------------------------------------------]
D[-----0 ~ ---88---33---33---0 ~ ---88---33---33-----]
A[-----0 ~ ---88---33---22---0 ~ ---88---33---22-----]
D[-----0 ~ ---88---33---33---0 ~ ---88---33---33-----]
			              ..   ..

         PRE - CHORUS 
e[-------------------------------------------------]
b[-------------------------------------------------]
g[-------------------------------------------------]
D[-----0-00000-0-0-0-0---8-88888-8-8-8-8---3-3-----]  2X
A[-----0-00000-0-0-0-0---8-88888-8-8-8-8---3-2-----]
D[-----0-00000-0-0-0-0---8-88888-8-8-8-8---3-3-----]
         .....   .   .     .....   .   .        

         CHORUS 
e[---------------------------------------------------]
b[---------------------------------------------------]
g[---------------------------------------------------]
D[-----00000000---88888888---33333333---22222222-----]
A[-----00000000---88888888---33333333---33333333-----]
D[-----00000000---88888888---33333333---22222222-----]


         BRIDGE
e[------------------------------------------------------------------------------------]
b[------------------------------------------------------------------------------------]
g[------------------------------------------------------------------------------------]
D[-----0---0-00---0---0-00---8---8-88---3---3-33---0---0-00---0---0-00---8---8-88-----]
A[-----0---0-00---0---0-00---8---8-88---3---3-33---0---0-00---0---0-00---8---8-88-----]
D[-----0---0-00---0---0-00---8---8-88---3---3-33---0---0-00---0---0-00---8---8-88-----]


         BRIDGE (cont.)
e[---------------------------]
b[---------------------------]
g[---------------------------]
D[-----3--3--3---3--3--3-----]
A[-----3--3--3---2--2--2-----]
D[-----3--3--3---3--3--3-----]



         CHORUS 
e[---------------------------------------------------]
b[---------------------------------------------------]
g[---------------------------------------------------]
D[-----00000000---88888888---33333333---22222222-----]
A[-----00000000---88888888---33333333---33333333-----]
D[-----00000000---88888888---33333333---22222222-----]

         CHORUS (cont.)
e[---------------------------------------------------]
b[---------------------------------------------------]
g[---------------------------------------------------]
D[-----00000000---88888888---33333333---22222222-----]
A[-----00000000---88888888---33333333---33333333-----]
D[-----00000000---88888888---33333333---22222222-----]


 I hope this tab helps you out. And I am sorry for all the bad tabbing. Feel free to correct it in any way. As I said before I am working on lead and the outro. Thanks for looking.
Show more