• Song:

    Rum Is For Drinking, Not Burning

  • Artist:

    Senses Fail

  • Album:

    Rum Is For Drinking Not...

Guitar 1
--------------------

Intro  X2

e|--------------------------------------------------------------------------|
B|--------------------------------------------------------------------------|
G|10---9----12---10---9----10---10---9----5----9----------------------------|
D|x(x3)x(x4)x(x1)x(x1)x(x2)x(x1)x(x3)x(x4)x(x4)x(x4)------------------------|
A|8----7----10---8----7----8----8----7----3---------------------------------|
D|--------------------------------------------------------------------------|

Verse

e|-------------------------------------|
B|-------------------------------------|
G|-------------------------------------|
D|0~--8-8---3-3-2-2--0~--8-8---3-3-2-2-|
A|0~--8-8---3-3-2-2--0~--8-8---3-3-2-2-|
D|0~--8-8---3-3-2-2--0~--8-8---3-3-2-2-|
                               . . . .

Verse cont.

e|-------------------------------------------------------------------------------------------------|
B|-------------------------------------------------------------------------------------------------|
G|-------------------------------------------------------------------------------------------------|
D|0-0-000000-0-0-000000-8-8-888888-3-3-333333-2-2-222222--0-0-000000-0-0-000000-8-8-888888-3-3-2-2-|
A|0-0-000000-0-0-000000-8-8-888888-3-3-333333-2-2-222222--0-0-000000-0-0-000000-8-8-888888-3-3-2-2-|
D|0-0-000000-0-0-000000-8-8-888888-3-3-333333-2-2-222222--0-0-000000-0-0-000000-8-8-888888-3-3-2-2-|
      {Fast                                                                                . . . .  
    Strumming}

Chorus  X8

e|---------------8-8-10-10--3-3-3/5-5--|
B|--5-5-6-6-3-3------------------------|
G|-------------------------------------|
D|-------------------------------------|
A|-------------------------------------|
D|-------------------------------------|

Verse 2

e|-------------------------------------|
B|-------------------------------------|
G|-------------------------------------|
D|0~--8-8---3-3-2-2--0~--8-8---3-3-2-2-|
A|0~--8-8---3-3-2-2--0~--8-8---3-3-2-2-|
D|0~--8-8---3-3-2-2--0~--8-8---3-3-2-2-|
                               . . . .

Verse 2 cont.

e|-------------------------------------------------------------------------------------------------|
B|-------------------------------------------------------------------------------------------------|
G|-------------------------------------------------------------------------------------------------|
D|0-0-000000-0-0-000000-8-8-888888-3-3-333333-2-2-222222--0-0-000000-0-0-000000-8-8-888888-3-3-2-2-|
A|0-0-000000-0-0-000000-8-8-888888-3-3-333333-2-2-222222--0-0-000000-0-0-000000-8-8-888888-3-3-2-2-|
D|0-0-000000-0-0-000000-8-8-888888-3-3-333333-2-2-222222--0-0-000000-0-0-000000-8-8-888888-3-3-2-2-|
      {Fast                                                                                . . . .  
    Strumming}

Chorus 2  X8

e|---------------8-8-10-10--3-3-3/5-5--|
B|--5-5-6-6-3-3------------------------|
G|-------------------------------------|
D|-------------------------------------|
A|-------------------------------------|
D|-------------------------------------|

Bridge

e|--5~-----------------------------------------------------------------------|
B|---------------------------------------------------------------------------|Second Part Of
G|--------------------------------10-10-10-10-10-9-10-10---14---10---9------|Bridge
D|--------------------------------x--x--x--x--x--x-x--x  x2-x(x8)x(x4)x(x3)--|
A|--------------------------------8--8--8--8--8--7-8--8-/---12---8----7------|
D|---------------------------------------------------------------------------|


Chorus 3  X8

e|---------------8-8-10-10--3-3-3/5-5--|
B|--5-5-6-6-3-3------------------------|
G|-------------------------------------|
D|-------------------------------------|
A|-------------------------------------|
D|-------------------------------------|

Outro

e|---------------8-8-10-10--3-3-3/5-5--|     e|8-8-1010------1313-1212-1010-8h10--|
B|--5-5-6-6-3-3------------------------|     B|---------1010----------------------| 
G|-------------------------------------|  x4 G|-----------------------------------|  x4
D|-------------------------------------|  /   D|-----------------------------------|  /
A|-------------------------------------| /    A|-----------------------------------| /
D|-------------------------------------|/     D|-----------------------------------|/


e|---------------8-8-10-10--3-3-3/5-5--------------------------------------------------------------|
B|5-5-6-6-3-3-----------------------------6x6x6x6x6x6x6x6x6x6x6x6x6x6x6(turn volume down slowly)-|
G|-------------------------------------(x3)--------------------------------------------------------|
D|-------------------------------------------------------------------------------------------------|
A|-------------------------------------------------------------------------------------------------|
D|-------------------------------------------------------------------------------------------------|

There ya have it.  I'm not sure about the last part of the outro before it goes 6x6x6x6x6x6x6, but other than that
I think its all correct, email for correction and/or comments - tyler_hockeydude@hotmail.com


       Guitar 2
------------------------

Intro

e|-------------------------------------------------------------------|
B|-------------------------------------------------------------------|
G|-------------------------------------------------------------------|
D|0-00-0-00--0-00-0-00---8-88-8-88---10-1010-10-1010-----------------|x2
A|0-00-0-00--0-00-0-00---8-88-8-88---10-1010-10-1010-----------------|
D|0-00-0-00--0-00-0-00---8-88-8-88---10-1010-10-1010-----------------|


Verse 1

e|-------------------------------------|
B|-------------------------------------|
G|-------------------------------------|
D|0~--8-8---3-3-2-2--0~--8-8---3-3-2-2-|
A|0~--8-8---3-3-2-2--0~--8-8---3-3-2-2-|
D|0~--8-8---3-3-2-2--0~--8-8---3-3-2-2-|
                               . . . .

Verse cont.

e|-------------------------------------------------------------------------------------------------|
B|-------------------------------------------------------------------------------------------------|
G|-------------------------------------------------------------------------------------------------|
D|0-0-000000-0-0-000000-8-8-888888-3-3-333333-2-2-222222--0-0-000000-0-0-000000-8-8-888888-3-3-2-2-|
A|0-0-000000-0-0-000000-8-8-888888-3-3-333333-2-2-222222--0-0-000000-0-0-000000-8-8-888888-3-3-2-2-|
D|0-0-000000-0-0-000000-8-8-888888-3-3-333333-2-2-222222--0-0-000000-0-0-000000-8-8-888888-3-3-2-2-|
      {Fast                                                                                . . . .
     Strumming}                                                                                      

Chorus

e|----------------------------------------------------------------------------------------------------------------|
B|----------------------------------------------------------------------------------------------------------------|
G|----------------------------------------------------------------------------------------------------------------|
D|--0-000-0-000-0-000-0-000-8-888-8-888-8-888-8-888-3-333--3-333-3-333-3-333-10-101010-10-101010-8-888-10-101010--|
A|--0-000-0-000-0-000-0-000-8-888-8-888-8-888-8-888-3-333--3-333-3-333-3-333-10-101010-10-101010-8-888-10-101010--|
E|--0-000-0-000-0-000-0-000-8-888-8-888-8-888-8-888-3-333--3-333-3-333-3-333-10-101010-10-101010-8-888-10-101010--|


Verse 2

e|-------------------------------------|
B|-------------------------------------|
G|-------------------------------------|
D|0~--8-8---3-3-2-2--0~--8-8---3-3-2-2-|
A|0~--8-8---3-3-2-2--0~--8-8---3-3-2-2-|
D|0~--8-8---3-3-2-2--0~--8-8---3-3-2-2-|
                               . . . .

Verse 2 cont.

e|-------------------------------------------------------------------------------------------------|
B|-------------------------------------------------------------------------------------------------|
G|-------------------------------------------------------------------------------------------------|
D|0-0-000000-0-0-000000-8-8-888888-3-3-333333-2-2-222222--0-0-000000-0-0-000000-8-8-888888-3-3-2-2-|
A|0-0-000000-0-0-000000-8-8-888888-3-3-333333-2-2-222222--0-0-000000-0-0-000000-8-8-888888-3-3-2-2-|
D|0-0-000000-0-0-000000-8-8-888888-3-3-333333-2-2-222222--0-0-000000-0-0-000000-8-8-888888-3-3-2-2-|
      {Fast                                                                                . . . .
    Strumming}

Chorus 2

e|----------------------------------------------------------------------------------------------------------------|
B|----------------------------------------------------------------------------------------------------------------|
G|----------------------------------------------------------------------------------------------------------------|
D|--0-000-0-000-0-000-0-000-8-888-8-888-8-888-8-888-3-333--3-333-3-333-3-333-10-101010-10-101010-8-888-10-101010--|
A|--0-000-0-000-0-000-0-000-8-888-8-888-8-888-8-888-3-333--3-333-3-333-3-333-10-101010-10-101010-8-888-10-101010--|
E|--0-000-0-000-0-000-0-000-8-888-8-888-8-888-8-888-3-333--3-333-3-333-3-333-10-101010-10-101010-8-888-10-101010--|

Bridge

e|----------------------------------------------------------------------------------------------------|
B|----------------------------------------------------------------------------------------------------|
G|----------------------------------------------------------------------------------------------------|
D|-- 0~ --------------------------0-0000000--0-0000000--8-8888888--10-101010101010--------------------|x2
A|-- 0~ --------------------------0-0000000--0-0000000--8-8888888--10-101010101010--------------------|
E|-- 0~ ---------------0-0000000--0-0000000--8-8888888--10-101010101010--------------------|


Chorus 3

e|--------------------------------------------------------------------------------------------------------------|
B|--------------------------------------------------------------------------------------------------------------|
G|--------------------------------------------------------------------------------------------------------------|
D|--0-000-0-000-0-000-0-000-8-888-8-888-8-888-8-888-3-333--3-333-3-333-3-333-10-101010-10-101010-8-888-10-101010|x2
A|--0-000-0-000-0-000-0-000-8-888-8-888-8-888-8-888-3-333--3-333-3-333-3-333-10-101010-10-101010-8-888-10-101010|
E|--0-000-0-000-0-000-0-000-8-888-8-888-8-888-8-888-3-333--3-333-3-333-3-333-10-101010-10-101010-8-888-10-101010|

Outro(along with guitar 1)

e|---------------8-8-10-10--3-3-3/5-5--|     e|8-8-1010------1313-1212-1010-8h10--|
B|--5-5-6-6-3-3------------------------|     B|---------1010----------------------| 
G|-------------------------------------|  x4 G|-----------------------------------|  x4
D|-------------------------------------|  /   D|-----------------------------------|  /
A|-------------------------------------| /    A|-----------------------------------| /
D|-------------------------------------|/     D|-----------------------------------|/


e|---------------8-8-10-10--3-3-3/5-5--------------------------------------------------------------|
B|5-5-6-6-3-3-----------------------------6x6x6x6x6x6x6x6x6x6x6x6x6x6x6(turn volume down slowly)---|
G|----------------------------------(x3)-----------------------------------------------------------|
D|-------------------------------------------------------------------------------------------------|
A|-------------------------------------------------------------------------------------------------|
D|-------------------------------------------------------------------------------------------------|


There ya have it.  I'm not sure about the last part of the outro before it goes 6x6x6x6x6x6x6, but other than that
I think its all correct, email for correction and/or comments - tyler_hockeydude@hotmail.com
Show more