• Song:

    Rum Is For Drinking Not For Burning

  • Artist:

    Senses Fail

  • Album:

    Live at Cervantes Theat...

---------------------------------------------------------------------
       Rum is for Drinking, Not for Burning - Senses Fail
---------------------------------------------------------------------

Tabbed By:Duncan Boyle 
e-mail:biscuit_pistachio@hotmail.com

     

Tuning: DADG


     INTRO

G|-------------------------------------------------------------------|
D|--------------------------------------   --------------------------|
A|------------------------------------- X2 --------------------------|
D|-0-0-000-0-0-10h12-8-8-888-3-3-222---   ---------------------------|


     VERSE

G|-------------------------------------------------------------------|
D|------------------------   ----------------------------------------|
A|----------------------- X2 ----------------------------------------|
D|--0~---8~---333-222----   -----------------------------------------|


     PRE-CHORUS

G|-------------------------------------------------------------------|
D|-------------------------------------------   ---------------------|
A|------------------------------------------ X2 ---------------------|
D|--0-0-0-000-0-0-0-000-8-8-8-888-333-222---   ----------------------|


     CHORUS

G|-------------------------------------------------------------------|
D|---------------------------------------------------------------   -|
A|-------------------------------------------------------------- X4 -|
D|-0-0000000000-8-8888888888-3-3333333333-10-10101010-888-101010   --|


     BRIDGE

G|-------------------------------------------------------------------|
D|-----------------------------------------------   -----------------|
A|---------------------------------------------- X4 -----------------|
D|--0-0-000-0-0-0-10h12--8-8-888--3-33-3-2h3----   ------------------|



| h  hammer-on
| p  pull-off
| ~  vibrato
| x  Mute note
=====================================================================
Show more