• Song:

    Slow Dance

  • Artist:

    Senses Fail

  • Album:

    Live at Cervantes Theat...

Guitar Intro

Verse 1 

 X4
G|-----------------------------------|
D|--------------------------------------------|
A|--3-3-3-3-3-3-3-3------------------|
D|---------------------------2-2-2-2-2-2-2-2------------|
        


  Chorus 
 X2
G|------------------------------------------------------|
D|---------------------------------------------------------------------------------|
A|---------------------------------------------------------------------------------3-3-3-3-3-3-3-3---|
D|-5-5-5-5-5-5-5-5--2-2-2-2-2-2-2-2-2-2-2-2-2-2-2-2--------------------|


 Verse 2
 X2
G|-----------------------------------|
D|--------------------------------------------------|
A|--3-3-3-3-3-3-3-3------------------|
D|-----------------------2-2-2-2-2-2-2-2------------|


 

G|-------------------|-------------------------------------------|
D|----------------------------------------------------------------|
A|--3-3-3-----------|--3-3-3----------------------------------------------------------|
D|--------------2-2-2------|---------------2---2-2-2-2-2-2-2---2----2----2---|
                                                         
    Chorus 
 X2
G|------------------------------------------------------|
D|----------------------------------------------------------------------|
A|------------------------------------------------------------------------------3-3-3-3-3-3-3-3---|
D|-5-5-5-5-5-5-5-5--2-2-2-2-2-2-2-2-2-2-2-2-2-2-2-2--------------------|

   Bridge 
 X2
G|--------------------------------------------------------------------|
D|----------------------------------------------------------------------|
A|------------------------------------------------------------------------|
D|--2-2-2-2-2-2-2-2-2-2-2-2-2-2-2--5-5-5-5-5-5-5-5-5-5-5-5-5-5-5-5----|


 X2
G|---------------------------------------------------------------------------------|
D|---------------------------------------------------------------------------------|
A|----------------------------------------------------------------------------------|
D|--2-2-2--2-2-2----2-2-2--2-2-2----2-2-2--2-2-2----2-2-2--2-2-2--5-5-5--5-5-5-----|


Chorus 
 X4
G|-----------------------------------------------------|
D|----------------------------------------------------------------------------------|
A|--------------------------------------------------------------------------------3-3-3-3-3-3-3-3---|
D|-5-5-5-5-5-5-5-5--2-2-2-2-2-2-2-2-2-2-2-2-2-2-2-2--------------------|




G|--------------------------------------|
D|------------------------------------------|
A|----------------------------------------------|
D|--2-2-2-----2----2-2-2-2--2-----------|

email for if any questions at phillip1432@hotmail.com
Show more