• Song:

    The Ground Folds

  • Artist:

    Senses Fail

  • Album:

    From the Depths of Drea...

SONG:The Ground Folds (Acoustic)
BAND:Senses Fail
ALBUM:From the Depths of Dreams EP
TABBED BY:Brian D'aurio and John Riccitelli

*Drop D tuning
**listen to song for rhythm
***strumming pattern should be correct

++INTRO++
(GUITAR 1)
E|-10-8---8~10-8---8~12-8---10-8-7
B|------8--------8--------8-------
G|-------------------------------- 2X
D|--------------------------------
A|--------------------------------
D|--------------------------------

(GUITAR 2)
E|----------------------------------------------------------------
B|----------------------------------------------------------------
G|---------------10-1010101010-1010101010------------------------- 
D|-7-77777-77777-10-1010101010-1010101010-10-1010101010-1010101010
A|-7-77777-77777--8--8-8-8-8-8--8-8-8-8-8-10-1010101010-1010101010
D|-7-77777-77777--------------------------10-1010101010-1010101010

(GUITAR 2)
E|--------------------------------------------------
B|--------------------------------------------------
G|--------------------------------------------------  2X
D|-10-1010101010-1010101010-10-1010101010-1010101010
A|-10-1010101010-1010101010-10-1010101010-1010101010
D|-10-1010101010-1010101010-10-1010101010-10101010-9
==============================================================
++VERSE++
(GUITAR 2)  *played softer than intro
E|---------------------------------------
B|---------------------------------------
G|---------------10-1010101010-1010101010
D|-7-77777-77777-10-1010101010-1010101010
A|-7-77777-77777--8--8-8-8-8-8--8-8-8-8-8
D|-7-77777-77777-------------------------

E|--------------------------------------------------
B|--------------------------------------------------
G|--------------------------------------------------  2X
D|-10-1010101010-1010101010-10-1010101010-1010101010
A|-10-1010101010-1010101010-10-1010101010-1010101010
D|-10-1010101010-1010101010-10-1010101010-10101010-9
==============================================================
++PRECHORUS++
(GUITAR 1)
E|-10-8---10-8---10-8-10-8---10-8---10-8-10-8---10-8---10-8-10-8---12-13~
B|------8------8-----------8------8-----------8------8-----------8-------
G|-----------------------------------------------------------------------
D|-----------------------------------------------------------------------
A|-----------------------------------------------------------------------
D|-----------------------------------------------------------------------

(GUITAR 2)
E|------------------------------------------
B|------------------------------------------
G|------------------------------------------
D|-7-77777-77777-5-55555-55555-3-33333-33333
A|-7-77777-77777-5-55555-55555-3-33333-33333
D|-7-77777-77777-5-55555-55555-3-33333-33333

E|--------
B|--------
G|--------
D|-3-3-555
A|-3-3-555
D|-3-3-555
=============================================================
++CHORUS++
(GUITAR 1 and/or 2)
E|--------------------------------------------------
B|--------------------------------------------------
G|--------------------------------------------------
D|-10-1010101010-1010101010-10-1010101010-1010101010
A|-10-1010101010-1010101010-10-1010101010-1010101010
D|-10-1010101010-1010101010-10-1010101010-1010101010

E|---------------------------------------------------
B|---------------------------------------------------
G|-10-1010101010-1010101010-10-1010101010-10101010-10
D|-10-1010101010-1010101010--9--9-9-9-9-9--9-9-9-9-10
A|-8--8-8-8-8-8--8-8-8-8-8---8--8-8-8-8-8--8-8-8-8--8
D|---------------------------------------------------

E|------------------------------------------
B|------------------------------------------
G|------------------------------------------
D|-7-77777-77777-5-55555-55555-3-33333-33333
A|-7-77777-77777-5-55555-55555-3-33333-33333
D|-7-77777-77777-5-55555-55555-3-33333-33333

E|-------
B|-------
G|------- (REPEAT ENTIRE CHORUS)
D|-3-3-55
A|-3-3-55
D|-3-3-55
=============================================================
++BRIDGE++
(GUITAR 1 and/or 2)
E|------------------------------------
B|------------------------------------
G|------------------------------------ 2X
D|-7-777-777-5-555-555-3-333-333-3-333
A|-7-777-777-5-555-555-3-333-333-3-333
D|-7-777-777-5-555-555-3-333-333-3-333
    *strummed quicky
E|-----------------------------------------
B|-----------------------------------------
G|----------10-----------------------------
D|-10--25x--10--25X--7--14X--5--14X--3--28X
A|-10--------8-------7-------5-------3-----
D|-10----------------7-------5-------3-----
=============================================================
++OUTRO++
(GUITAR 1 and/or 2)
E|------------------------------------
B|------------------------------------
G|------------------------------------ 2X
D|-7-777-777-5-555-555-3-333-333-3-333
A|-7-777-777-5-555-555-3-333-333-3-333
D|-7-777-777-5-555-555-3-333-333-3-333
=============================================================
=============================================================
jric1088@aol.com
Show more