• Song:

    The Ground Folds

  • Artist:

    Senses Fail

  • Album:

    From the Depths of Drea...

Alright,I'm not exactly sure what Senses Fail tunes to, they'd might tune to flats, but I tabbed it in Drop-D, if it is tuned to flats, just move everything up a fret uur something.I think the acoustic version of this song is better, but here it is, it's pretty simple so have fun with it.
Tunning-DADG , >-certain count , ~-let note ring out.
           -Figured out and Tabbed by Dejackamo Von Rictor from Barstow CA
Intro:
G-------------------------|------------------------------------------------
D-------------------------|------------------------------------------------
A-------------------------|------------------------------------------------
D--5555-55-5-5-555-55-5-5-|-5555-55-5-5-555-55-5-5-1111-11-1-1-111-11-1-1--
Verses: (the strumming changes with the drums)
G---------
D---------
A---------
D-5>--1>--
Pre-Chorus:
G--------------------------------------------------
D--------------------------------------------------
A--------------------------------------------------
D-00-0-0-00-11-1-1-1-00-0-0-00-11-1-1-11-11111111--
Chorus:
G-------------------------------
D-------------------------------
A-----1>------------------------
D-5>------1>-00-0-00-0-11-1-11--
Bridge:
G------------|-------------------------------------------------------------
D------------|-------------------------------------------------------------
A------------|---1>--------------------------------------------------------
D-11111111---|-------1-1111-1-1-1-1111-1-1--5>--1-111-1-1-1-1-1-111-1-1-1--
Dummy-Picking Part:
G----------------------------------------------------------------------------------
D----------------------------------------------------------------------------------
A-1111-1-1111-1-111-1-1111-1-1111-1-111-1------------------------------------------
D-----------------------------------------1111-1-1111-1-111-1-1111-1-1111-1-111-1--

G----------------------------------------------------------------------------------
D----------------------------------------------------------------------------------
A----------------------------------------------------------------------------------
D-5555-5-5555-5-555-5-5555-5-5555-5-555-5-1111-1-1111-1-111-1-1111-1-1111-1-111-1--
End Of Bridge:
G-------------------------------------------
D-------------------------------------------
A-------------------------------------------
D-1~-"let's hold it back..."-----------1>---(than go into chorus)
End On:
G-------
D-------
A-------
D--5~---
 "this song is about as bad-ass as girl's with pink hair!"
    wwww.bassrockerj.ezhoster.com- The Waiting Hurt
Show more