• Song:

    The Irony Of Dying On Your Birthday

  • Artist:

    Senses Fail

  • Album:

    Live at Cervantes Theat...

Artist: Senses Fail
Song: The Irony Of Dying On Your Birthday
Album: Let It Enfold You
Tabber: Andrew (fromthespectrum)
Email: fromthespectrum@yahoo.com

h = hammer-on
p = pull-off (NOT pull-out, LOL!!!)
b = bend up 1/2 step
r = release bend
/ = slide
* = harmonic
> = ring out/sustain
x = mute or strike muted strings
. = palm muted

Drop D Tuning


	Intro Part One (Both Guitars)

e|-----------------------------------------------------|
B|-----------------------------------------------------|
G|-1212-1212-1212-1313-x----88-88-88-77-x--------------|
D|-1010-1010-1010-1010-x----66-66-66-66-x--------------|
A|-1010-1010-1010-1010-x----66-66-66-66-x--------------|
D|-1010-1010-1010-1010-x----66-66-66-66-x--------------|

	Intro Part Two (Guitar Two)
	(Guitar One continues Part One)	

e|-----------------------------------------------------|
B|-----------------------------------------------------|
G|-121212121212121212/13131313131313-------------------|
D|-x-x-x-x-x-x-x-x-x--x-x-x-x-x-x-x--------------------|
A|-101010101010101010/11111111111111-------------------|
D|-----------------------------------------------------|



e|-----------------------------------------------------|
B|-----------------------------------------------------|
G|-7/88888888/10101010/888-----------------------------|
D|-x/xxxxxxxx/x-x-x-x-xxxx-----------------------------|
A|-5/66666666/8-8-8-8-/666-----------------------------|
D|-----------------------------------------------------|

	Verse (Both Guitars)

e|-----------------------------------------------------|
B|-----------------------------------------------------|
G|-55-55-55-55-55-55-55-55-----------------------------|
D|-55-55-55-55-55-55-55-55-66-66-66-66-66-66-66-66-----|
A|-33-33-33-33-33-33-33-33-66-66-66-66-66-66-66-66-----|
D|-------------------------66-66-66-66-66-66-66-66-----|
   .. .. .. .. .. .. .. .. .. .. .. .. .. .. .. ..

	Pre-Chorus (Guitar One)

e|-----------------------------------------------------|
B|-----------------------------------------------------|
G|-5--5x--5h7/8---------7h8-10-8-----------------------|
D|-5--5x---------6--6x---------------------------------|
A|-3--3x---------6--6x---------------------------------|
D|---------------6--6x---------------------------------|

	Pre-Chorus (Guitar Two)

e|-----------------------------------------------------|
B|--------4h6/8---------6h8-9-8------------------------|
G|-5--5x-----------------------------------------------|
D|-5--5x---------6--6x---------------------------------|
A|-3--3x---------6--6x---------------------------------|
D|---------------6--6x---------------------------------|

	Chorus (Guitar One)

e|-----------------------------------------------------|
B|-----------------------------------------------------|
G|-5-5-5-5-----------------3-3-3-3---------------------|
D|-5-5-5-5-6-6-6-6/1-1-1-1-3-3-3-3---------------------|
A|-3-3-3-3-6-6-6-6/1-1-1-1-1-1-1-1---------------------|
D|---------6-6-6-6/1-1-1-1-----------------------------|

	Chorus (Guitar Two)

e|-----------------------------------------------------|
B|-(13x)-(3x)--(16x)-(13x)-(3x)---(8x)--(4x)--(4x)-----|
G|-8-----10----8-----12----13-----7-----5-----7--------|
D|-x-----x-----x-----x-----x------x-----x-----x--------|
A|-6-----8-----6-----10----11-----5-----3-----5--------|
D|-----------------------------------------------------|

	Breakdown (Guitar One)

e|-----------------------------------------------------|
B|------------------------(2x)-------------------------|
G|-----------------------------------------------------|
D|-1010101010x---10/66666x----6/11111x---1-3333-3333/1-|
A|-1010101010x---10/66666x----6/11111x---1-3333-3333/1-|
D|-1010101010x---10/66666x----6/11111x---1-3333-3333/1-|
   ..........    ........     .......    . .... ......
	

e|-----------------------------------------------------|
B|-----------------------------------------------------|
G|-55-55-55-55-5555------------------------------------|
D|-55-55-55-55-5555-88-88-88-88-8888-------------------|
A|-33-33-33-33-3333-66-66-66-66-6666-------------------|
D|------------------66-66-66-66-6666-------------------|



e|-----------------------------------------------------|
B|-----------------------------------------------------|
G|-----------------------------------------------------|
D|-11-11-11-11-1111-33-33-33-33-1h333------------------|
A|-11-11-11-11-1111-33-33-33-33-1h333------------------|
D|-11-11-11-11-1111-33-33-33-33-1h333------------------|

	Breakdown (Guitar Two)
	(palm muted first 2x, free pick last 2x)

e|-----------------------------------------------------|
B|-44p33--44p33-----3/44p33--44p33-----3---------------|
G|------33-----33-5--------33-----33-5-----------------|
D|-----------------------------------------------------|
A|-----------------------------------------------------|
D|-----------------------------------------------------|
   .....................................


e|-----------------------------------------------------|
B|-44p33--44p33-----3/4/66666666/4444/3333-------------|
G|------33-----33-5------------------------------------|
D|-----------------------------------------------------|
A|-----------------------------------------------------|
D|-----------------------------------------------------|
   .......................................
Show more