• Song:

    The Irony Of Dying On Your Birthday

  • Artist:

    Senses Fail

  • Album:

    Live at Cervantes Theat...

The Irony of Dying on Your Birthday
Drop -D Tuning (D A D G)

Intro (00:04) 3x
G|-------------------------|----------------|
D|-10-10-10-10-10-10-10-10-|-66-66-66-66-66-|
A|-------------------------|----------------|
D|-------------------------|----------------|

Intro last time
G|-------------------------|----------------|
D|-10-10-10-10-10-10-10-10-|-66-66-66-66----|
A|-------------------------|----------------|
D|-------------------------|-------------3-|

Verse 2x 
G|---------------------|----------------------|-------------|----------------|
D|---------------------|----------------------|-------------|----------------|
A|---------------------|----------------------|-------------|----------------|
D|-1010-1010-1010-1010-|-1010-1010-1010-1210-|-66-66-66-66-|-66-66-66666666-|

PreChorus 1x
G|---------|--------|---------|----------|
D|---------|--------|---------|----------|
A|---------|--------|---------|----------|
D|-10-10---|-6-6----|-10-10---|-6-6---56-|

Chorus 2x
G|-------------------|-----------|-----------|-----------|
D|-------------------|-----------|-----------|-----------|
A|-------------------|-----------|-----------|-----------|
D|-10101010-10101010-|-6666-6666-|-1111-1111-|-8888-8888-|

Verse 2x

PreChorus 1x

Chorus 2x

Bridge 
Part 1 2x
G|--------------|---------|---------|----------------|
D|--------------|---------|---------|----------------|
A|--------------|---------|---------|----------------|
D|-10101010--10|-6666—-6|-1111--1-|-3333--3333-1-3-|

Part 2
G|-------------|---------|------------|---------------|
D|-------------|---------|------------|---------------|
A|-------------|---------|------------|---------------|
D|-1010-1010---|-66-66---|-1-1--1-1---|-33-1-1-1-1--1-|

Part 3
G|---------------------|-----------------|--------------------|-----------|
D|---------------------|-----------------|--------------------|-----------|
A|---------------------|-----------------|--------------------|-----------|
D|-1010-1010-1010-1010-|-66-66-66-66-6-6-|-1-1—-1-1—-1-1-—1-1-|-33333-111-|



Chorus 2x
G|-------------------|-----------|-----------|---------------|
D|-------------------|-----------|-----------|---------------|
A|-------------------|-----------|-----------|---------------|
D|-10101010-10101010-|-6666-6666-|-1111-1111-|-8888-8888-8888|

Chorus 2x
G|-------------|---------|-----------|---------------|
D|-------------|---------|-----------|---------------|
A|-------------|---8-6-5-|-----------|---------------|
D|-10-12-13-15-|-6-------|-1111-1111-|-8888-8888-8888|

End 1x
G|----------||
D|----------||
A|----------||
E|-10------||

Questions, Comments, or anything blackstaticsoul@yahoo.com
Show more