• Song:

    Tie Her Down

  • Artist:

    Senses Fail

  • Album:

    Live at Cervantes Theat...

Band: Senses Fail
Song: Tie Her Down
Tuning: Drop D
Album:Let It Unfold You

Intro
Gtr I
|-----------------------------------------|-------------------------------|
|-10-10-10-10-10-10-10-10-x---------------|-------------------------------|
|-11-11-11-11-11-11-11-11-x-6-6-6-6-6-6-6-|-x-7-7-7-7-7-7-7---------------|
|--9--9--9--9--9--9--9--9-x-0-0-0-0-0-0-0-|-x-5-5-5-5-5-5-5-----0---------|
|--9--9--9--9--9--9--9--9-x-0-0-0-0-0-0-0-|-x-5-5-5-5-5-5-5-----0---------|
|--9--9--9--9--9--9--9--9-x-0-0-0-0-0-0-0-|-x-5-5-5-5-5-5-5-0-0-0-4-5-4-0-|
|
| Gtr II
|-----------------------------------------|-------------------------------|
|-----------------------------------------|-------------------------------|
|-----------------------------------------|-------------------------------|
|--9--9--9--9--9--9--9--9-x-0-0-0-0-0-0-0-|-x-5-5-5-5-5-5-5-----0---------|
|--9--9--9--9--9--9--9--9-x-0-0-0-0-0-0-0-|-x-5-5-5-5-5-5-5-----0---------|
|--9--9--9--9--9--9--9--9-x-0-0-0-0-0-0-0-|-x-5-5-5-5-5-5-5-0-0-0-4-5-4-0-|


|----------------------------------------|--------------------------------|
|-x-10-10-10-10-10-10-10-x---------------|--------------------------------|
|-x-11-11-11-11-11-11-11-x-6-6-6-6-6-6-6-|-x-7-7-7-7-7-7-7----------------|
|-x--9--9--9--9--9--9--9-x-0-0-0-0-0-0-0-|-x-5-5-5-5-5-5-5-----0----------|
|-x--9--9--9--9--9--9--9-x-0-0-0-0-0-0-0-|-x-5-5-5-5-5-5-5-----0----------|
|-x--9--9--9--9--9--9--9-x-0-0-0-0-0-0-0-|-x-5-5-5-5-5-5-5-0-0-0-4-5-4-0--|
|
|----------------------------------------|--------------------------------|
|----------------------------------------|--------------------------------|
|----------------------------------------|--------------------------------|
|-x--9--9--9--9--9--9--9-x-0-0-0-0-0-0-0-|-x-5-5-5-5-5-5-5-----0----------|
|-x--9--9--9--9--9--9--9-x-0-0-0-0-0-0-0-|-x-5-5-5-5-5-5-5-----0----------|
|-x--9--9--9--9--9--9--9-x-0-0-0-0-0-0-0-|-x-5-5-5-5-5-5-5-0-0-0-4-5-4-0--|


   Verse
||-----------------------------------|------------------------------||
||o-----10-10-10-10-10---------------|-----------------------------o||
||------11-11-11-11-11-----6-6-6-6-6-|-----7-7-7-7-7----------------||
||-------9--9--9--9--9-----0-0-0-0-0-|-----5-5-5-5-5-----0----------||
||o------9--9--9--9--9-----0-0-0-0-0-|-----5-5-5-5-5-----0---------o||
||--9-9--9--9--9--9--9-0-0-0-0-0-0-0-|-5-5-5-5-5-5-5-0-0-0-4-5-4-0--||
|
||-----------------------------------|------------------------------||
||o----------------------------------|-----------------------------o||
||-----------------------------------|------------------------------||
||-------9--9--9--9--9-----0-0-0-0-0-|-----5-5-5-5-5-----0----------||
||o------9--9--9--9--9-----0-0-0-0-0-|-----5-5-5-5-5-----0---------o||
||--9-9--9--9--9--9--9-0-0-0-0-0-0-0-|-5-5-5-5-5-5-5-0-0-0-4-5-4-0--||


||---------------------------------------|-----------------------------------||
||o-----10---10---10-10---10-8---8---8-8-|---8-7---7---7-7---7---7-8-7---7--o||
||--7-7----7----7-------7------7---7-----|-7-----7---7-----7---7-------7-----||
||---------------------------------------|-----------------------------------||
||o--------------------------------------|----------------------------------o||
||---------------------------------------|-----------------------------------||
|
||---------------------------------------|-----------------------------------||
||o--------------------------------------|----------------------------------o||
||---------------------------------------|-----------------------------------||
||-------9----9-9--9--9------0---0-0-0-0-|-----5---5-5-5-5-----0-------------||
||o------9----9-9--9--9------0---0-0-0-0-|-----5---5-5-5-5-----0------------o||
||--9-9--9----9-9--9--9-0--0-0---0-0-0-0-|-5-5-5---5-5-5-5-0-0-0---4-5-4-0---||


 Pre-Chorus
|---------------------------------|---------------------------------|
|---------------------------------|---------------------------------|
|---------------------------------|---------------------------------|
|---------------------------------|---------------------------------|
|-2-2---------2-2---------4-4-----|-5-5---------5-5-----------------|
|-2-2---------2-2---------4-4-----|-5-5---------5-5-----------------|
|
|---------------------------------|---------------------------------|
|---------------------------------|---------------------------------|
|-7-7-7-7-7-7-7-7-7-7-7-7s9-9-9-9-|-7-7-7-7-7-7-7-7-7-7-7-7-6-6-6-6-|
|---------------------------------|---------------------------------|
|-5-5-5-5-5-5-5-5-5-5-5-5s7-7-7-7-|-5-5-5-5-5-5-5-5-5-5-5-5-4-4-4-4-|
|---------------------------------|---------------------------------|


|---------------------------------|-------|
|---------------------------------|-------|
|---------------------------------|-------|
|---------------------------------|-5-----|
|-2-2---------2-2---------4-4-----|-5-----|
|-2-2---------2-2---------4-4-----|-5-----|
|
|---------------------------------|-------|
|---------------------------------|-------|
|-7-7-7-7-7-7-7-7-7-7-7-7s9-9-9-9-|-7-----|
|---------------------------------|-------|
|-5-5-5-5-5-5-5-5-5-5-5-5s7-7-7-7-|-5-----|
|---------------------------------|-------|


   Chorus
||---------------------------------------------------|
||o--10-10-10-10-10-10-10-10-10-10-10-10-10-10-10-10-|
||---11-11-11-11-11-11-11-11-11-11-11-11-11-11-11-11-|
||----9--9--9--9--9--9--9--9--9--9--9--9--9--9--9--9-|
||o---9--9--9--9--9--9--9--9--9--9--9--9--9--9--9--9-|
||----9--9--9--9--9--9--9--9--9--9--9--9--9--9--9--9-|
|
||---------------------------------------------------|
||o--------------------------------------------------|
||--/12-12-12-12-12-12-11-11-11-11-11-11--7--7--7--7-|
||---------------------------------------------------|
||o-/10-10-10-10-10-10--9--9--9--9--9--9--5--5--5--5-|
||---------------------------------------------------|


|---------------------------------------------------|
|--10-10-10-10-10-10-10-10-10-10-10-10-10-10-10-10--|
|--11-11-11-11-11-11-11-11-11-11-11-11-11-11-11-11--|
|---9--9--9--9--9--9--9--9--9--9--9--9--9--9--9--9--|
|---9--9--9--9--9--9--9--9--9--9--9--9--9--9--9--9--|
|---9--9--9--9--9--9--9--9--9--9--9--9--9--9--9--9--|
|
|---------------------------------------------------|
|---------------------------------------------------|
|-/12-12-12-12-12-12-11-11-11-11-11-11--7--7--7--7--|
|---------------------------------------------------|
|-/10-10-10-10-10-10--9--9--9--9--9--9--5--5--5--5--|
|---------------------------------------------------|


|----------------------------------------------|
|----------------------------------------------|
|---7--7--7--7--7--7--7--7--7--7--7--7-7-7-7-7-|
|---5--5--5--5--5--5--5--5--5--5--5--5-5-5-5-5-|
|---5--5--5--5--5--5--5--5--5--5--5--5-5-5-5-5-|
|---5--5--5--5--5--5--5--5--5--5--5--5-5-5-5-5-|
|
|----------------------------------------------|
|----------------------------------------------|
|-/12-12-12-12-12-12-11-11-11-11-11-11-7-7-7-7-|
|----------------------------------------------|
|-/10-10-10-10-10-10--9--9--9--9--9--9-5-5-5-5-|
|----------------------------------------------|


|---------------------------------------------||
|--------------------------------------------o||
|---7--7--7--7--7--7--7--7--7--7-7-7-7-7-7-7--||
|---5--5--5--5--5--5--5--5--5--5-5-5-5-5-5-5--||
|---5--5--5--5--5--5--5--5--5--5-5-5-5-5-5-5-o||
|---5--5--5--5--5--5--5--5--5--5-5-5-5-5-5-5--||
|
|---------------------------------------------||
|--------------------------------------------o||
|-/12-12-12-12-12-12-11-11-11-11-7---9--------||
|---------------------------------------------||
|-/10-10-10-10-10-10--9--9--9--9-5---7-------o||
|---------------------------------------------||


|----------------------------------------------|
|----------------------------------------------|
|---7--7--7--7--7--7--7--7--7--7--7--7-7-7-7-7-|
|---5--5--5--5--5--5--5--5--5--5--5--5-5-5-5-5-|
|---5--5--5--5--5--5--5--5--5--5--5--5-5-5-5-5-|
|---5--5--5--5--5--5--5--5--5--5--5--5-5-5-5-5-|
|
|----------------------------------------------|
|----------------------------------------------|
|-/12-12-12-12-12-12-11-11-11-11-11-11-7-7-7-7-|
|----------------------------------------------|
|-/10-10-10-10-10-10--9--9--9--9--9--9-5-5-5-5-|
|----------------------------------------------|


|------------------------------------|
|------------------------------------|
|--7-7-7-7-7-7--7--7--7--7--7--7--7--|
|--5-5-5-5-5-5--5--5--5--7--7--7--7--|
|--5-5-5-5-5-5--5--5--5--7--7--7--7--|
|--5-5-5-5-5-5--5--5--5--7--7--7--7--|
|
|------------------------------------|
|------------------------------------|
|-/9-9-9-9-9-9-11-11-11-11-11-11-12--|
|------------------------------------|
|-/7-7-7-7-7-7--9--9--9--9--9--9-10--|
|------------------------------------|


 Interlude
|-----------------------------|------------------------------|
|-----------------------------|------------------------------|
|-----------------------------|------------------------------|
|--0--------------------------|-(0)--------------------------|
|--0--------------------------|-(0)--------------------------|
|--0--------------------------|-(0)--------------------------|
|
|-----------------------------|------------------------------|
|-10----(10)-10----(10)-10----|-10-----(10)-10----(10)-10----|
|-----------------------------|------------------------------|
|----12--12-----12--12-----12-|-----12--12-----12--12-----12-|
|-----------------------------|------------------------------|
|-----------------------------|------------------------------|


|-------------------------|--------------------------|
|-------------------------|--------------------------|
|-------------------------|--------------------------|
|--5----------------------|-(5)----------------------|
|--5----------------------|-(5)----------------------|
|--5----------------------|-(5)----------------------|
|
|-------------------------|--------------------------|
|-------------------------|--------------------------|
|-11----11-11----11-11----|-11-----11-11----11-11----|
|----12-12----12-12----12-|-----12-12----12-12----12-|
|-------------------------|--------------------------|
|-------------------------|--------------------------|

  
|-------------------------|--------------------------|
|-------------------------|--------------------------|
|-------------------------|--------------------------|
|--9----------------------|-(9)----------------------|
|--9----------------------|-(9)----------------------|
|--9----------------------|-(9)----------------------|
|
|-------------------------|--------------------------|
|-------------------------|--------------------------|
|-12----12-12----12-12----|-12-----12-12----12-12----|
|----12-12----12-12----12-|-----12-12----12-12----12-|
|-------------------------|--------------------------|
|-------------------------|--------------------------|
|
| Gtr III
|-------------------------|--------------------------|
|-------------------------|--------------------------|
|-------------------------|--------------------------|
|-------------------------|--------------------------|
|-------------------------|--------------------------|
|-------------------------|--------------------------|

|-------------------------|--------------------------------|
|-------------------------|--------------------------------|
|-------------------------|--------------------------------|
|--5----------------------|-(5)----------------------------|
|--5----------------------|-(5)----------------------------|
|--5----------------------|-(5)----------------------------|
|
|-------------------------|--------------------------------|
|-------------------------|--------------------------------|
|-11----11-11----11-11----|-11-----11-11------11-11--------|
|----12-12----12-12----12-|-----12-12----12---12------12---|
|-------------------------|--------------------------------|
|-------------------------|--------------------------------|
|
|-------------------------|--------------------------------|
|-------------------------|---------------7-8--7--7-8--7---|
|-------------------------|--------------------------------|
|-------------------------|--------------------------------|
|-------------------------|--------------------------------|
|-------------------------|--------------------------------|


 Bridge
|-----------------------------|------------------------------|
|-----------------------------|------------------------------|
|-----------------------------|------------------------------|
|--0--------------------------|-(0)--------------------------|
|--0--------------------------|-(0)--------------------------|
|--0--------------------------|-(0)--------------------------|
|
|-----------------------------|------------------------------|
|-10----(10)-10----(10)-10----|-10-----(10)-10----(10)-10----|
|-----------------------------|------------------------------|
|----12--12-----12--12-----12-|-----12--12-----12--12-----12-|
|-----------------------------|------------------------------|
|-----------------------------|------------------------------|


|-------------------------|--------------------------|
|-------------------------|--------------------------|
|-------------------------|--------------------------|
|--5----------------------|-(5)----------------------|
|--5----------------------|-(5)----------------------|
|--5----------------------|-(5)----------------------|
|
|-------------------------|--------------------------|
|-------------------------|--------------------------|
|-11----11-11----11-11----|-11-----11-11----11-11----|
|----12-12----12-12----12-|-----12-12----12-12----12-|
|-------------------------|--------------------------|
|-------------------------|--------------------------|


|-------------------------|--------------------------|
|-------------------------|--------------------------|
|-------------------------|--------------------------|
|--9----------------------|-(9)----------------------|
|--9----------------------|-(9)----------------------|
|--9----------------------|-(9)----------------------|
|
|-------------------------|--------------------------|
|-------------------------|--------------------------|
|-12----12-12----12-12----|-12-----12-12----12-12----|
|----12-12----12-12----12-|-----12-12----12-12----12-|
|-------------------------|--------------------------|
|-------------------------|--------------------------|
|
| Gtr III
|-------------------------|--------------------------|
|-------------------------|--------------------------|
|-------------------------|--------------------------|
|-------------------------|--------------------------|
|-------------------------|--------------------------|
|-------------------------|--------------------------|


|-------------------------|----------------------------|
|-------------------------|----------------------------|
|-------------------------|----------------------------|
|--5----------------------|-(5)------------------------|
|--5----------------------|-(5)------------------------|
|--5----------------------|-(5)------------------------|
|
|-------------------------|----------------------------|
|-------------------------|----------------------------|
|-11----11-11----11-11----|-11-----11-11------11-11----|
|----12-12----12-12----12-|-----12-12----12---12----12-|
|-------------------------|----------------------------|
|-------------------------|----------------------------|
|
|-------------------------|----------------------------|
|-------------------------|---------------7-8--7-------|
|-------------------------|----------------------------|
|-------------------------|----------------------------|
|-------------------------|----------------------------|
|-------------------------|----------------------------|


 Build-Up
|---------------------------------------------|
|---------------------------------------------|
|---------------------------------------------|
|---------------------------------------------|
|--0-0--0-0---0--0--0-0--0-0---0--0--0-0--0-0-|
|--0-0--0-0---0--0--0-0--0-0---0--0--0-0--0-0-|
|
|---------------------------------------------|
|-10--------(10)---10--------(10)---10--------|
|---------------------------------------------|
|------12----12---------12----12---------12---|
|---------------------------------------------|
|---------------------------------------------|


|---------------------------------------------|
|---------------------------------------------|
|---------------------------------------------|
|---------------------------------------------|
|--0-0--0-0---0--0--0-0--0-0---0--0--0-0--0-0-|
|--0-0--0-0---0--0--0-0--0-0---0--0--0-0--0-0-|
|
|---------------------------------------------|
|-10--------(10)---10--------(10)---10--------|
|---------------------------------------------|
|------12----12---------12----12---------12---|
|---------------------------------------------|
|---------------------------------------------|


|-----------------------------------------|
|-----------------------------------------|
|-----------------------------------------|
|-----------------------------------------|
|--5-5--5-5--5-5--5-5--5-5--5-5--5-5--5-5-|
|--5-5--5-5--5-5--5-5--5-5--5-5--5-5--5-5-|
|
|-----------------------------------------|
|-----------------------------------------|
|-11--------11---11--------11---11--------|
|------12---12--------12---12--------12---|
|-----------------------------------------|
|-----------------------------------------|


|-----------------------------------------|
|-----------------------------------------|
|-----------------------------------------|
|-----------------------------------------|
|--5-5--5-5--5-5--5-5--5-5--5-5--5-5--5-5-|
|--5-5--5-5--5-5--5-5--5-5--5-5--5-5--5-5-|
|
|-----------------------------------------|
|-----------------------------------------|
|-11--------11---11--------11---11--------|
|------12---12--------12---12--------12---|
|-----------------------------------------|
|-----------------------------------------|


|-----------------------------------------|
|-----------------------------------------|
|-----------------------------------------|
|-----------------------------------------|
|--9-9--9-9--9-9--9-9--9-9--9-9--9-9--9-9-|
|--9-9--9-9--9-9--9-9--9-9--9-9--9-9--9-9-|
|
|-----------------------------------------|
|-----------------------------------------|
|-12--------12---12--------12---12--------|
|------12---12--------12---12--------12---|
|-----------------------------------------|
|-----------------------------------------|


|-----------------------------------------|
|-----------------------------------------|
|-----------------------------------------|
|-----------------------------------------|
|--9-9--9-9--9-9--9-9--9-9--9-9--9-9--9-9-|
|--9-9--9-9--9-9--9-9--9-9--9-9--9-9--9-9-|
|
|-----------------------------------------|
|-----------------------------------------|
|-12--------12---12--------12---12--------|
|------12---12--------12---12--------12---|
|-----------------------------------------|
|-----------------------------------------|


|-------------------------|-------------------------|
|-------------------------|-------------------------|
|-------------------------|-------------------------|
|-------------------------|-------------------------|
|--5--5--5--5--5--5--5--5-|--5--5--5--5--5----------|
|--5--5--5--5--5--5--5--5-|--5--5--5--5--5----------|
|
|-------------------------|-------------------------|
|-------------------------|-------------------------|
|-11----11-11----11-11----|-11----11----11----11----|
|----12-12----12-12----12-|----12----12----12----12-|
|-------------------------|-------------------------|
|-------------------------|-------------------------|
|
| Gtr III
|-------------------------|-------------------------|
|-------------------------|--7--8--7--8--7--8--7--8-|
|-------------------------|-------------------------|
|-------------------------|-------------------------|
|-------------------------|-------------------------|
|-------------------------|-------------------------|


 Out-Chorus
  D5                                 D5/G                     G5
|-----------------|----------------|-----------------|----------------|
|-----------------|----------------|-----------------|----------------|
|-7-7-7-7-7-7-7-7-|--7-7-7-7-7-7-7-|-7-7-7-7-7-7-7-7-|--7-7-7---------|
|-----------------|----------------|-----------------|----------------|
|-5-5-5-5-5-5-5-5-|--5-5-5-5-5-5-5-|-5-5-5-5-5-5-5-5-|--5-5-5-5-5-5-5-|
|-----------------|----------------|-----------------|--------5-5-5-5-|
|
|                                                               PM--|
|-----------------|----------------|-----------------|----------------|
|-----------------|----------------|-----------------|----------------|
|-----------------|----------------|-----------------|----------------|
|-0-0-0-0-0-0-0-0-|--0-0-0-0-0-0-0-|-7-7-7-7-7-7-7-7-|--7-7-----------|
|-0-0-0-0-0-0-0-0-|--0-0-0-0-0-0-0-|-5-5-5-5-5-5-5-5-|--5-5---5-5-5-5-|
|-0-0-0-0-0-0-0-0-|--0-0-0-0-0-0-0-|-5-5-5-5-5-5-5-5-|--5-5---5-5-5-5-|

|-------------------------|-----------------------|
|-------------------------|-----------------------|
|-11-11-11-11-11-11-11-11-|--11-11-11-11-11-11-11-|
|-------------------------|-----------------------|
|--9--9--9--9--9--9--9--9-|---9--9--9--9--9--9--9-|
|-------------------------|-----------------------|
|
|-------------------------|-----------------------|
|-------------------------|-----------------------|
|-------------------------|-----------------------|
|-11-11-11-11-11-11-11-11-|--11-11-11-11-11-11-11-|
|--9--9--9--9--9--9--9--9-|---9--9--9--9--9--9--9-|
|--9--9--9--9--9--9--9--9-|---9--9--9--9--9--9--9-|

                   
|-----------------|------------------|
|-----------------|------------------|
|-7-7-7-7-7-7-7-7-|--7-9-9-9-9---9-9-|
|-----------------|------------------|
|-5-5-5-5-5-5-5-5-|--5-7-7-7-7---7-7-|
|-----------------|------------------|
|
|-----------------|------------------|
|-----------------|------------------|
|-----------------|------------------|
|-7-7-7-7-7-7-7-7-|--7-7-------------|
|-5-5-5-5-5-5-5-5-|--5-5---5---5---5-|
|-5-5-5-5-5-5-5-5-|--5-5---5---5---5-|


  D5                                  D5/G                      G5
|-----------------|-----------------|-----------------|-----------------|
|-----------------|-----------------|-----------------|-----------------|
|-7-7-7-7-7-7-7-7-|-7-7-7-7-7-7-7-7-|-7-7-7-7-7-7-7-7-|-7-7-7-7---------|
|-----------------|-----------------|-----------------|-----------------|
|-5-5-5-5-5-5-5-5-|-5-5-5-5-5-5-5-5-|-5-5-5-5-5-5-5-5-|-5-5-5-5-5-5-5-5-|
|-----------------|-----------------|-----------------|---------5-5-5-5-|
|
|                                                               PM----|
|-----------------|-----------------|-----------------|-----------------|
|-----------------|-----------------|-----------------|-----------------|
|-----------------|-----------------|-----------------|-----------------|
|-0-0-0-0-0-0-0-0-|---0-0-0-0-0-0-0-|-7-7-7-7-7-7-7-7-|---7-7-----------|
|-0-0-0-0-0-0-0-0-|---0-0-0-0-0-0-0-|-5-5-5-5-5-5-5-5-|---5-5---5-5-5-5-|
|-0-0-0-0-0-0-0-0-|---0-0-0-0-0-0-0-|-5-5-5-5-5-5-5-5-|---5-5---5-5-5-5-|

|-------------------------|-------------------------|
|-------------------------|-------------------------|
|-11-11-11-11-11-11-11-11-|-11-11-11-11-11-11-11-11-|
|-------------------------|-------------------------|
|--9--9--9--9--9--9--9--9-|--9--9--9--9--9--9--9--9-|
|-------------------------|-------------------------|
|
|-------------------------|-------------------------|
|-------------------------|-------------------------|
|-------------------------|-------------------------|
|-11-11-11-11-11-11-11-11-|----11-11-11-11-11-11-11-|
|--9--9--9--9--9--9--9--9-|-----9--9--9--9--9--9--9-|
|--9--9--9--9--9--9--9--9-|-----9--9--9--9--9--9--9-|


|-----------------|-------------------|
|-----------------|-------------------|
|-7-7-7-7-7-7-7-7-|-7-7-9-9-9-9---9-9-|
|-----------------|-------------------|
|-5-5-5-5-5-5-5-5-|-5-5-7-7-7-7---7-7-|
|-----------------|-------------------|
|
|-----------------|-------------------|
|-----------------|-------------------|
|-----------------|-------------------|
|-7-7-7-7-7-7-7-7-|---7-7-------------|
|-5-5-5-5-5-5-5-5-|---5-5---5---5---5-|
|-5-5-5-5-5-5-5-5-|---5-5---5---5---5-|


  D5
  >
|----------|------------|------------|--------*|
|----------|------------|------------|--------*|
|----------|------------|------------|--------*|
|-0--------|-(0)--------|-(0)--------|-(0)----*|
|-0--------|-(0)--------|-(0)--------|-(0)----*|
|-0--------|-(0)--------|-(0)--------|-(0)----*|
|
| >
|----------|------------|------------|--------*|
|----------|------------|------------|--------*|
|----------|------------|------------|--------*|
|-0--------|-(0)--------|-(0)--------|-(0)----*|
|-0--------|-(0)--------|-(0)--------|-(0)----*|
|-0--------|-(0)--------|-(0)--------|-(0)----*|




--------------------------------------------------------------------------------


Tablature Legend
----------------
 h   - hammer-on
 p   - pull-off
 b   - bend
 pb  - pre-bend
 r   - bend release (if no number after the r, then release immediately)
 /  - slide into or out of (from/to "nowhere")
 s   - legato slide
 S   - shift slide
 - natural harmonic
[n]  - artificial harmonic
n(n) - tapped harmonic
 ~   - vibrato
 tr  - trill
 T   - tap
 TP  - trem. picking
 PM  - palm muting
n/  - tremolo bar dip; n = amount to dip
 n  - tremolo bar down
 n/  - tremolo bar up
/n  - tremolo bar inverted dip
 =   - hold bend; also acts as connecting device for hammers/pulls
 <> - volume swell (louder/softer)
 x   - on rhythm slash represents muted slash
 o   - on rhythm slash represents single note slash

Misc Legend
-----------
 |  - bar
||  - double bar
||o - repeat start
o|| - repeat end
*|  - double bar (ending)
 :  - bar (freetime)
 $  - Segno
 &  - Coda
Tempo markers -  = BPM(8/16=s8/s16), where s8 = swing 8ths, s16 = swing 16ths
Show more