• Song:

    Tie Her Down

  • Artist:

    Senses Fail

  • Album:

    Live at Cervantes Theat...

Senses Fail - Slow Dance
---------------------------------------------------------------------------

Tabbed by - Joel De Leon (Ssaydaysago1@aol.com)

DROPPED D TUNING - Strings are (D A D G B E)

*= Harmonic
~= let ring

GUITAR 1’S PART
---------------

Intro: (2x) 
e|------------------------------------
B|-0----------0-----------------------
G|-4----------4----------------------- 
D|-5----------5-----------------------
A|-3----------2----------------------- 
D|------------------------------------
 

Verse 1: (1x)
               
e|--------------------------------------------------------------------------------------------------
B|-8-8-8-8---8-8-8---8-8-8-7-7-7-7--5-5-5-5--5-5-5--5-5-5-0-0-0-0---0-0-0-0--0-0-0--0-0-0--0-0-0-0--
G|-7-7-7-7---7-7-7---7-7-7-7-7-7-7--7-7-7-7--7-7-7--7-7-7-7-7-7-7---0-0-0-0--0-0-0--0-0-0--0-0-0-0--
D|--------------------------------------------------------------------------------------------------
A|--------------------------------------------------------------------------------------------------
D|--------------------------------------------------------------------------------------------------

  
e|---------------------------------------------------------------------------------------------------------
B|-8-8-8-8--8-8-8--8-8-8--7-7-7-7--0-0-0-0--0-0-0--0-0-0--0-0-0-0--5-5-5-5--5-5-5--5-5-5-0-0-0-0--0-0-0-0--
G|-7-7-7-7--7-7-7--7-7-7--7-7-7-7--0-0-0-0--0-0-0--0-0-0--0-0-0-0--7-7-7-7--7-7-7--7-7-7-7-7-7-7--0-0-0-0--
D|---------------------------------------------------------------------------------------------------------
A|---------------------------------------------------------------------------------------------------------
D|---------------------------------------------------------------------------------------------------------


Chorus: (2x)
e|--0----0-----0----0---------0-----0-----0----0----------0-----0-----0--------0-----0-----0--------
B|-15---12----13---12--------15----12----13---12----------8----10----12--------8----10----12--------
G|--------------------------------------------------------------------------------------------------
D|--------------------------------------------------------------------------------------------------
A|--------------------------------------------------------------------------------------------------
D|--------------------------------------------------------------------------------------------------



Verse 2: (1x)
e|--------------------------------------------------------------------------------------------------
B|-8-8-8-8---8-8-8---8-8-8-7-7-7-7--5-5-5-5--5-5-5--5-5-5-0-0-0-0---0-0-0-0--0-0-0--0-0-0--0-0-0-0--
G|-7-7-7-7---7-7-7---7-7-7-7-7-7-7--7-7-7-7--7-7-7--7-7-7-7-7-7-7---0-0-0-0--0-0-0--0-0-0--0-0-0-0--
D|--------------------------------------------------------------------------------------------------
A|--------------------------------------------------------------------------------------------------
D|--------------------------------------------------------------------------------------------------
   
                                                                      
e|--------------------------------------------------------------------------------------------
B|----------------------------------------------8-8-8-8-8-8-8-8--8-8-8-8--7-7-7-7-------------
G|--5-5-5-5------------12---14---11----5-5-5----7-7-7-7-7-7-7-7--7-7-7-7--7-7-7-7-------------
D|--5-5-5-5--2-2-2------x----x----x----5-5-5--------------------------------------------------
A|--3-3-3-3--2-2-2-----10---12----9----3-3-3--------------------------------------------------
D|-----------2-2-2----------------------------------------------------------------------------


Chorus: Same as first


Bridge: (2x)
e|-------------------------------------------------------------------------------
B|----------------------------------5--------------------------------------------
G|--0-7-9--0-7-9--0-7-9--0-7-9--0-7---4---0-4-5--0-4-5--0-4-5--0-4-5--0-4-5-0----
D|-------------------------------------------------------------------------------
A|-------------------------------------------------------------------------------
D|-------------------------------------------------------------------------------
(On the second time end on just 0 instead of 0-4-5-0)



Bridge continued:  PALM MUTE IN TRIPLETS
e|---------------------0----------------------0----------------------0-------------------------------
B|---------------------4----------------------4----------------------4-------------------------------
G|---------------------------------------------------------------------------------------------------
D|--2-2-2----2-2-2----------2-2-2---2-2-2----------2-2-2---2-2-2-----------2-2-2---2-2-2---5-5-5-5---
A|--2-2-2----2-2-2----------2-2-2---2-2-2----------2-2-2---2-2-2-----------2-2-2---2-2-2---5-5-5-5---        D|--2-2-2----2-2-2----------2-2-2---2-2-2----------2-2-2---2-2-2-----------2-2-2---2-2-2---5-5-5-5---

   



Bridge continued:  PALM MUTE IN TRIPLETS
e |-----------------------0-0-0-0-----------------0-0-0-0-----------------0-0-0-0----------------------
B|------------------------4-4-4-4-----------------4-4-4-4-----------------4-4-4-4----------------------
G|-----------------------------------------------------------------------------------------------------
D|--2-2-2----2-2-2----------------2-2-2---2-2-2------------2-2-2---2-2-2------------2-2-2---2-2-2---5--
A|--2-2-2----2-2-2----------------2-2-2---2-2-2------------2-2-2---2-2-2------------2-2-2---2-2-2---5--      D|--2-2-2----2-2-2----------------2-2-2---2-2-2------------2-2-2---2-2-2------------2-2-2---2-2-2---5--
                                                                                                    ~       


Chorus: Same



Chorus Continued: Strumming is real easy 
e|--------------------------------------------------------------------------------------------------------
B|--------------------------------------------------------------------------------------------------------
G|---12-----11----9-----7-----11---12----14----12--------16---14----17---16----12---19----17----16----14--
D|----x-----x-----x-----x-----x-----x-----x-----x---------x----x-----x----x-----x----x-----x-----x-----x--
A|---10-----9-----7-----5-----9----10----12----10--------14---12----15---14----10---17----15----14----12--
D|--------------------------------------------------------------------------------------------------------


Outro:
e|----------------------------------------------------
B|----------------------------------------------------
G|----------------------------------------------------
D|---2-2-2----x-2----2-2-2-2-2-2----------------------
A|---2-2-2----x-2----2-2-2-2-2-2----------------------
D|---2-2-2----x-2----2-2-2-2-2-2----------------------



GUITAR 2’S PARTS
-------------

Intro: (4x)
e|----------------------------------------------------------------------
B|----------------------------------------------------------------------
G|--5-5-5-5---5-5-5---5-5-5-5-5-5---------------------------------------
D|--5-5-5-5---5-5-5---5-5-5-5-5-5--2-2-2-2---2-2-2---2-2-2-2-2-2--------
A|--3-3-3-3---3-3-3---3-3-3-3-3-3--2-2-2-2---2-2-2---2-2-2-2-2-2--------                                     D|---------------------------------2-2-2-2---2-2-2---2-2-2-2-2-2--------



Chorus: (1x) Strumming is real easy
e|------------------------------------------------------------------------------
B|------------------------------------------------------------------------------
G|-------------------------------------5-5-5-5--x---5-5-5-5---x---5-5-5-5-------
D|-----5---7--------0----------2-------5-5-5-5--x---5-5-5-5---x---3-3-3-3-------
A|-----5---5--------0----------2-------3-3-3-3--x---3-3-3-3---x---3-3-3-3-------
D|-----5---5--------0----------2------------------------------------------------







Chorus Continued
e|--------------------------------------------------------------------------------------
B|--------------------------------------------------------------------------------------
G|-----------------------------------------5-5-5-5--x---5-5-5-5---x---5-5-5-5-----------
D|-----5---7--------0-----0-0-0-0--2-------5-5-5-5--x---5-5-5-5---x---3-3-3-3-----------
A|-----5---5--------0-----0-0-0-0--2-------3-3-3-3--x---3-3-3-3---x---3-3-3-3-----------
D|-----5---5--------0-----0-0-0-0--2----------------------------------------------------
                                    


Verse: (2x)
e|------------------------------------------------------------------------
B|------------------------------------------------------------------------
G|--5-5-5-5---5-5-5---5-5-5-5-5-5-----------------------------------------
D|--5-5-5-5---5-5-5---5-5-5-5-5-5--2-2-2-2---2-2-2---2-2-2-2-2-2----------
A|--3-3-3-3---3-3-3---3-3-3-3-3-3--2-2-2-2---2-2-2---2-2-2-2-2-2----------                                   D|---------------------------------2-2-2-2---2-2-2---2-2-2-2-2-2----------
         
  


Verse Continued: (Use HARMONICS)                             
e|-------------------------------------------------------------------------------------------------------
B|-----------------------------------------------------------5-------------------------------------------
G|---5-5-5-5-------5-----5-------------------5-5-5-5------5-----5----------------------------------------
D|---5-5-5-5----------5-----5----------------5-5-5-5-------------------2-2-2-2-2-2-2-2-2-2-2-2-2-2-2-2---
A|---3-3-3-3---------------------2-2-2-2-----3-3-3-3-------------------2-2-2-2-2-2-2-2-2-2-2-2-2-2-2-2---
D|-------------------------------2-2-2-2-------------------------------2-2-2-2-2-2-2-2-2-2-2-2-2-2-2-2---
                  *   *  *  *                             *   *  *

       

Chorus: Same as first



Bridge:
e|-------------------------------------------------------------------------------
B|-------------------------------------------------------------------------------
G|-------------------------------------------------------------------------------
D|--2-2---2-2-2---2--2-2---2-2-2---0--0---5-5---5-5-5--5--5-5---5-5-5---5---5----
A|--2-2---2-2-2---2--2-2---2-2-2---0--0---5-5---5-5-5--5--5-5---5-5-5---5---5----
D|--2-2---2-2-2---2--2-2---2-2-2---0--0---5-5---5-5-5--5--5-5---5-5-5---5---5----


e|-----------------------------------------------------------------------------------
B|-----------------------------------------------------------------------------------
G|-----------------------------------------------------------------------------------
D|--2-2---2-2-2---2--2-2---2-2-2---0--0---5-5---5-5-5--5----5--5--5----5-5-5---5-----
A|--2-2---2-2-2---2--2-2---2-2-2---0--0---5-5---5-5-5--5----5--5--5----5-5-5---5-----
D|--2-2---2-2-2---2--2-2---2-2-2---0--0---5-5---5-5-5--5----5--5--5----5-5-5---5-----


Bridge continued:  PALM MUTE IN TRIPLETS
e|---------------------0----------------------0---------------------0--------------------------------
B|---------------------4----------------------4---------------------4--------------------------------
G|---------------------------------------------------------------------------------------------------
D|--2-2-2----2-2-2----------2-2-2---2-2-2----------2-2-2---2-2-2-----------2-2-2---2-2-2---5-5-5-5---
A|--2-2-2----2-2-2----------2-2-2---2-2-2----------2-2-2---2-2-2-----------2-2-2---2-2-2---5-5-5-5---        D|--2-2-2----2-2-2----------2-2-2---2-2-2----------2-2-2---2-2-2-----------2-2-2---2-2-2---5-5-5-5---

   



Bridge continued:  PALM MUTE IN TRIPLETS
e|-----------------------0-0-0-0-----------------0-0-0-0-----------------0-0-0-0--------------------0--
B|-----------------------4-4-4-4-----------------4-4-4-4-----------------4-4-4-4--------------------4--
G|-----------------------------------------------------------------------------------------------------
D|--2-2-2----2-2-2----------------2-2-2---2-2-2------------2-2-2---2-2-2------------2-2-2---2-2-2------
A|--2-2-2----2-2-2----------------2-2-2---2-2-2------------2-2-2---2-2-2------------2-2-2---2-2-2------      D|--2-2-2----2-2-2----------------2-2-2---2-2-2------------2-2-2---2-2-2------------2-2-2---2-2-2------
                                                                                                    ~

Chorus: Same


Outro
e|----------------------------------------
B|----------------------------------------
G|----------------------------------------
D|---2-2-2----x-2----2-2-2-2-2-2----------
A|---2-2-2----x-2----2-2-2-2-2-2----------
D|---2-2-2----x-2----2-2-2-2-2-2----------
Show more