Tuned to D?
e|------------------------------------|
B|------------------------------------|
G|------------------------------------|
D|------------------------------------|
A|--7--7-7---------7--7-7-------------|
E|--0--0-0--5-6-5--0--0-0--5-6-5-6-5--|

e|---------|
B|---------|
G|---------|
D|---------|
A|---------|
E|--0--6b--|

e|-----------|
B|-----------|
G|-----------|
D|-----------|
A|--3-3-3-3--|
E|--1-1-1-1--|

"Solo":
e|--20----------------------|
B|--22b--(tremolo picking)--|
G|--------------------------|
D|--------------------------|
A|--------------------------|
E|--------------------------|

Ending:

e|---------------------------------------------------------------------|
B|---------------------------------------------------------------------|
G|---------------------------------------------------------------------|
D|---------------------------------------------------------------------|
A|--Listen to the CD for the correct rhytmum: 2-22-22-2-2-2-22-22-...--|
E|--------------------------------------------0-00-00-0-0-0-00-00-...--|

thadeumb@hotmail.com
Show more