• Song:

    People Like New

  • Artist:

    Seven Mary Three

  • Album:

    Rock Crown

'PEOPLE LIKE NEW'
SEVEN MARY THREE from the album "ROCKCROWN"
Transcribed by  Jason Leonard
Thanks to Robbie Gennet for the chords.


* I am currently working on the solo at the end.  Any Help will be much smiled upon.

CHORDS:

  A (x02220@1)      Ab (xx1114@1)       C (x32010@1)     D (xx0232@1)     F (133211@1)-----     -----     -----   --2--   --1--|
--1--     --1--     --1--   --3--   --1--|
--2--     --1--     --0--   --2--   --2--|
--2--     --1--     --2--   --0--   --3--|
--0--     -----     --3--   -----   --3--|
-----     -----     -----   -----   --1--|

Note:  The lead of the song is the piano.  The piano begins the song,
         playing by itself.   The bassline plays the same notes the
         chords are named after.

0:00-0:30
A (x02220@1)Ab (xx1114@1) C (x32010@1) D (xx0232@1)0:31-0:55
A (x02220@1)      AbYeah (xx1114@1)the roads are right tonite
C (x32010@1)      D (xx0232@1)they are twisting
A (x02220@1)          Ab (xx1114@1)My mouth is dry
C (x32010@1)            D (xx0232@1)    (Guitar Fill #1)
 like cool air inside

0:56- 1:31
F (133211@1)          C (x32010@1)And maybe I worry
F (133211@1)             C (x32010@1)do things in a hurry
F (133211@1)             C (x32010@1)and follow the dust
               A (x02220@1) Gof (320003@1)people like new

                   A (x02220@1) AbThere's (xx1114@1)people like me
                      C (x32010@1)   (Solo#1 begins) Dand (xx0232@1)there's people like you

1:32-1:44 (during solo)
A (x02220@1)  Ab (xx1114@1)  C (x32010@1)  D (xx0232@1)1:45-2:08
A (x02220@1)       Ab (xx1114@1)Yeah the roads are right tonite
C (x32010@1)       D (xx0232@1)they are turning
A (x02220@1)          Ab (xx1114@1)I know that deep inside the pines
C (x32010@1)          D (xx0232@1)      (Guitar Fill 1)
 an answer is lurking

2:09-2:45
F (133211@1)          C (x32010@1)And maybe I worry
F (133211@1)             C (x32010@1)do things in a hurry
F (133211@1)             C (x32010@1)and follow the dust
              A (x02220@1) Gof (320003@1)people like new

                    FThere's (133211@1)people like me

A (x02220@1)         G (320003@1)                        F (133211@1)              and there's people like new

2:46-end
A    G    F   (These 3 chords repeat until the end while solo plays)

************************************************************
Here are the guitar fills & the solos.   Play them where noted.

Guitar Fill #1:

-----------|
-----------|
-----------|
--0-2-3----|
---------3-|
-----------|

Solo 1:

-------------------------------------------------------------|
-------------------------------------------------------------|
-------------------------------------------------------------|
-----------------10-12-12~14-14--14~12-12~10-------10--------|
------10-12-10-12----------------------------10-12-----------|
-10-12-------------------------------------------------------|

--------------------------------------|
--------------------------------------|
--------------------------------------|
--------------------------------------|
------10-------12-10------------------|
-10-12---10-12-------12-10-8~10-------|


(c)1998 Seven Mary Three Music, BMI. All rights reserved.
Administered by EMI Publishing. Lyrics reprinted by permission.

Show more