• Song:

    Super-related

  • Artist:

    Seven Mary Three

'Super-Related' by SEVEN MARY THREE
from the album ORANGE AVE.
transcribed by: Jason Leonard


Chords:

  G (320003@1)    A (x02220@1)    C (x32010@1)    B--3-- (x2444x@1) -----  --0--  -----
--3--  --2--  --3--  -----
--0--  --2--  --0--  --4--
--0--  --2--  --2--  --4--
--2--  --0--  --3--  --2--
--3--  -----  -----  -----

Here are the little guitar riffs that are played on each chord.

G-Riff   
-----------------|-------------------|
-----------------|-------------------|
-----------------|-------------------|
-----------------|-------------------|
-----------------|-------------------|
-3-3-3-3-3-2-3-2-|-3-3-3-3-3-3-3-3---|

A-Riff
-------------------|-------------------|
-------------------|-------------------|
-------------------|-------------------|
-------------------|-------------------|
-0-0-0-0-0---0-----|-0-0-0-0-0-0-0-0---|
------------3---3--|-------------------|

C-Riff
------------------|------------------|
------------------|------------------|
------------------|------------------|
-3-3-3-3-3-2-3-2--|-3-3-3-3-3-3-3-3--|
------------------|------------------|



Intro:  0:00- 0:07
G-Riff 2 times


Verse:  0:08- 0:39

GSuper-related (320003@1)and 
             AI (x02220@1)think it's bigger than books when
Creality (x32010@1)steps in, 
                   G (320003@1)she's a gun with a gun
GSuper-related (320003@1)and 
      A (x02220@1)I can feel you pull through me
Creality (x32010@1)surely 
                         G (320003@1)leaves the choice in our hands


Chorus:  0:40- 0:55

B (x2444x@1)                               CI (x32010@1)could be chemical, I could be a plastic proxy priest
              A (x02220@1)                              C (x32010@1)
he's got more ends than means, more wants than needs

0:56- 1:03
G-Riff 2 times


Verse:  1:04- 1:35

GSuper-related (320003@1)and
      A (x02220@1)I can see one holy roller
              Ckeeps (x32010@1)looking over his shoulder
                   G (320003@1)but there's nobody there
GSuper-related (320003@1)is
       A (x02220@1)like a cosmic communion
         CIt's (x32010@1)the holiest union
                  G (320003@1)that could ever exist


Chorus:  1:36- 1:50

B (x2444x@1)                                     CWhat (x32010@1)if we're aeroplanes?  I would be a fire in the sky
            A (x02220@1)                  C (x32010@1)
It's always do or die or hit the ground


1:51- 2:22
A (x02220@1)C (x32010@1)C (x32010@1)C (x32010@1)B (x2444x@1)C (x32010@1)A (x02220@1)C (x32010@1)( with solo )

2:23- 2:30
Acoustic- Strumming G-chord


Verse:  2:31- 3:01

GSuper-related (320003@1)is
        A (x02220@1)all the lovers and has-beens
             Cteaching (x32010@1)the comers and kingpins
                    G (320003@1)how to live with mistakes
(enter drums)
GSuper-related (320003@1)is
       A (x02220@1)like a cosmic communion
         CIt's (x32010@1)the colorless union
                       G (320003@1)of all the love in the world


Chorus:  3:02- end

B (x2444x@1)                                     CWhat (x32010@1)if we're aeroplanes?  I would be a fire in the sky
            A (x02220@1)                      C (x32010@1)
It's always do or die or hit the... 
Gground (320003@1)

(c)1998 Seven Mary Three Music, BMI. All rights reserved. 
Administered by EMI Publishing. Lyrics reprinted by permission.


Show more