• Song:

    Things I Stole

  • Artist:

    Seven Mary Three

  • Album:

    DAY&NIGHTDRIVING

Things I Stole - Seven Mary Three
transcribed by: Dave Neufeld

Chords:

G:320003
Am:X02210
C:X32013
C/B:X20010

G (Riff)

e--------------------------------------------------------|
G-------3-1-0-----1--------------------------------------|
B---0---------0-----0---0-2///4---4-4\2-0----0-----0---|
D-----0---------0-----0---0-----0-----------0----0-------|
A--------------------------------------------------------|
E-3-------------------------------------------3----3-----|

G______________________________________________
Am I strong enough to keep my mouth shut tight?

G_________________________________________________
Something in this house won't let me sleep tonight

Am___________C______
Sing one for tomorrow

Am__________C___________
One for the way we were

G (Riff)

G (start hitting the G note on the low e this time)
Am I man enough to say what I've done wrong?

GSomething (320003@1)in this house won't leave me alone

Am____________C______
Sing one for tomorrow

Am___________C_________
One for the way we were

G (riff)

Am_______________C_______
One for things I borrowed

Am___________________C____________
One for the thing I stole from her

G (Riff)

Am__________C_________Am_______C___C/B_____G (Riff)
Does baby love me the way she said she does?

Am__________C_________Am______C___C/B______G (Riff)
Does baby love me the way she said she does?

Solo

e-------------------------------------------------------|
B--------15-13-12--12---10//12--15-12\10-10\8---------|vvvv8vvv
G---0----0--0--0-0---0--------0----0------------0-------|
D-0---0-----------0---0---------------------------0-----|
A-------------------------------------------------------|
E-------------------------------------------------------|


e----------------------------------------------------------|
B--------15-13-12--12---10//12-12//15-12\10-10\8---------|vvvv8vvv
G---0----0--0--0-0---0--0------0-------------------0-------|
D-0---0-----------0---0------------------------------0-----|
A----------------------------------------------------------|
E----------------------------------------------------------|

e-----0-----------0-------0-------------------------------|
B------0------------0------0------------------------------|
G---7-----7///9---------7----7//9---9////12---------------|
D--9----0-------0------9----0------0---------0------------|
A-0-------------------0-----------0--------0--------------|
E---------------------------------------------------------|

e---------------------------------------------------------|
B--------15-13-12--12---8//10---10//12---12//10-10\8-----|
G---0----0--0--0-0---0--0-----0-0------0-0------0-------0-|
D-0---0-----------0---0------0--------0---------------0---|
A---------------------------------------------------------|
E---------------------------------------------------------|

Am__________C_________Am____________C____C/B____G (Riff)
Does baby love me the way that she said she does?

Am_______________C___________Am_____C____C/B_________G
Does your baby love you the way that she said she does?

Show more