• Song:

    Sick

  • Artist:

    Seven Wiser

  • Album:

    Seven Wiser

This is my first actual tab I've written, so I haven't included any actual rhythm or
in here, just the patterns he hits. If you just listen to the song it's not that hard to 
the rhythm he plays it at. Feedback is appreciated.


Intro (after bass plays its little riff)
Eb|------------------------------------------------------|
Bb|------------------------------------------------------|
F#|------------------------------------------------------|
C#|-------4-------4---------------5-------5-x-5--3p2-x-0-|
G#|-------2-------2---------------3-------3-x-3--3p2-x-0-|
C#|-3p2p0---3p2p0---3p2p0-3-3p2p0---3p2p0--------3p2-x-0-|

After the intro, while the bass is playing, and in between choruses, he throws in these 
riff a few times:

Eb|-------|----------------------------------|-------------------------------|
Bb|-------|----------------------------------|-------------------------------|
F#|-------|p-m-------------------------------|-------------------------------|
C#|-------|a-u-------------------------------|-2202-2202-2202/3323-3323/5555-|
G#|-3/5-2-|l-t-------------------------------|-------------------------------|
C#|-3/5-2-|m-e-2202-2202-2202/3323-3323/5555-|-------------------------------|

Pre-Chorus:

Eb|-2-2---2-2/3-3--0----|
Bb|-2-2---2-2/3-3--5----|
F#|-4-4---4-4/5-5--7----|
C#|-4-----4-4/5-5--7-0--|
G#|-2-----2-2/3-3--0-0--|
C#|----------------0-0--|

Chorus:

Eb|-2---3------------------------------------------------|
Bb|-2---3------------------------------------------------|
F#|-4---5---7---4----------------------------------------|
C#|-4---5---5---4---0------------------------------------|
G#|-2---3---5---2---0-2----------------------------------|
C#|-2-------5-------0-2----------------------------------|

Breakdown:

Eb|--------------------------------------------------------------|
Bb|--------------------------------------------------------------|
F#|--------------------------------------------------------------|
C#|-2202-2202-2202/3323-3323/5555--4444-4444-4444/5555-5555/7777-|
G#|-2202-2202-2202/3323-3323/5555--2202-2202-2202/3333-3333/7777-|
C#|-2202-2202-2202/3323-3323/5555--------------------------------|

That's it for the main portions of the song. There's a guitar in the background with 
effects that I can't really make out, but that's the gist of it.

Show more